Soundgarden - She Likes Surprises Chords & Tabs

 

She Likes Surprises Chords & Tabs

Soundgarden Chords & Tabs

Version: 1 Type: Bass Tab 0 ratings
1 star 2 stars 3 stars 4 stars 5 stars
comments

She Likes Surprises Bass Tab

   
Song: She Likes Surprises
Artist: Soundgarden
Album: Superunknown
Tabbed by: Jase Warner (www.erikk.co.uk)

Standard Tuning (E,A,D,G)

Intro:

G|---15---14\-12--|---15---14\-12--|---15---14\-12--|---15---14\-12--|
D|*---------------|----------------|----------------|----------------|
A|*--13---12\-10--|---13---12\-10--|---13---12\-10--|---13---12\-10--|
E|----------------|----------------|----------------|----------------|

G|---15---14\-12--|---15---14\-12--|---15---14\-12--|
D|*---------------|----------------|---------------*|
A|*--13---12\-10--|---13---12\-10--|---13---12\-10-*|
E|----------------|----------------|----------------|

First Verse:

G|-------10~------|----------------|-------10~------|----------------|
D|*---------------|----------------|----------------|----------------|
A|*-\10~----------|----------------|--\10~------10\-|/15~------------|
E|----------------|----------------|----------------|----------------|

G|----------------|--------8~------|--------5~------|----------------|
D|*---------------|----------------|----------------|----------------|
A|*---------------|-\6-------------|--5----------5\-|----------------|
E|----------------|----------------|----------------|-3~-------------|

Break:

G|----------------|
D|*-1-1----------*|
A|*-----0--2b-4-4*|
E|----------------|

G|-------10~------|----------------|-------10~------|----------------|
D|*---------------|----------------|----------------|----------------|
A|*-\10~----------|----------------|--\10~------10\-|/15~------------|
E|----------------|----------------|----------------|----------------|

G|----------------|--------8~------|--------5~------|----------------|
D|*---------------|----------------|----------------|----------------|
A|*---------------|-\6-------------|--5----------5\-|----------------|
E|----------------|----------------|----------------|-3~-------------|

Break:

G|----------------|
D|*-1-1----------*|
A|*-----0--2b-4-4*|
E|----------------|

Chorus:

G|----------------|----------------|---------------|--------|
D|*---------------|---------------*|*--------------|-------*|
A|*-----2-3-3-----|-----4-5-6-----*|*-------1------|----1-1*|
E|-1--1------2--3-|4--4-------6--6/|-3-1--3----3-1-|-3------|

G|----------------|----------------|---------------|-----------------|
D|*---------------|---------------*|*--------------|-----------------|
A|*-----2-3-3-----|-----4-5-6-----*|*-------1------|----1--1-------1-|
E|-1--1------2--3-|4--4-------6--6/|-3-1--3----3-1-|-3---------3-----|

G|----------------|--------|
D|----------------|-------*|
A|---------1------|----1-1*|
E|--3-1--3----3-1-|-3------|

G|----------------|----------------|----------------|----------------|
D|*---------------|----------------|----------------|---------------*|
A|*4-4-4-4-4-4-4-4|-6-6-6-6-6-6-6-6|----------------|---------------*|
E|----------------|----------------|-6~-------------|----------------|

Second Verse:

G|-------10~------|----------------|-------10~------|----------------|
D|*---------------|----------------|----------------|----------------|
A|*-\10~----------|----------------|--\10~------10\-|/15~------------|
E|----------------|----------------|----------------|----------------|

G|----------------|--------8~------|--------5~------|----------------|
D|*---------------|----------------|----------------|----------------|
A|*---------------|-\6-------------|--5----------5\-|----------------|
E|----------------|----------------|----------------|-3~-------------|

Break:

G|----------------|
D|*-1-1----------*|
A|*-----0--2b-4-4*|
E|----------------|
[ Tab from: http://www.guitartabs.cc/tabs/s/soundgarden/she_likes_surprises_btab.html ]
G|-------10~------|----------------|-------10~------|----------------|
D|*---------------|----------------|----------------|----------------|
A|*-\10~----------|----------------|--\10~------10\-|/15~------------|
E|----------------|----------------|----------------|----------------|

G|----------------|--------8~------|--------5~------|----------------|
D|*---------------|----------------|----------------|----------------|
A|*---------------|-\6-------------|--5----------5\-|----------------|
E|----------------|----------------|----------------|-3~-------------|

Break:

G|----------------|
D|*-1-1----------*|
A|*-----0--2b-4-4*|
E|----------------|

Chorus:

G|----------------|----------------|---------------|--------|
D|*---------------|---------------*|*--------------|-------*|
A|*-----2-3-3-----|-----4-5-6-----*|*-------1------|----1-1*|
E|-1--1------2--3-|4--4-------6--6/|-3-1--3----3-1-|-3------|

G|----------------|----------------|---------------|-----------------|
D|*---------------|---------------*|*--------------|-----------------|
A|*-----2-3-3-----|-----4-5-6-----*|*-------1------|----1--1-------1-|
E|-1--1------2--3-|4--4-------6--6/|-3-1--3----3-1-|-3---------3-----|

G|----------------|--------|
D|----------------|-------*|
A|---------1------|----1-1*|
E|--3-1--3----3-1-|-3------|

G|----------------|----------------|----------------|----------------|
D|*---------------|----------------|----------------|---------------*|
A|*4-4-4-4-4-4-4-4|-6-6-6-6-6-6-6-6|----------------|---------------*|
E|----------------|----------------|-6~-------------|----------------|

Variation:

G|-------10~------|----------------|-------10~------|----------------|
D|*---------------|----------------|----------------|----------------|
A|*-\10~----------|----------------|--\10~------10\-|/15~------------|
E|----------------|----------------|----------------|----------------|

G|----------------|--------8~------|--------5~------|----------------|
D|*---------------|----------------|----------------|----------------|
A|*---------------|-\6-------------|--5----------5\-|----------------|
E|----------------|----------------|----------------|-3~-------------|

Break:

G|----------------|
D|*-1-1----------*|
A|*-----0--2b-4-4*|
E|----------------|

Second Variation:

G|----------------|----------------|----------------|----------------|
D|*---------------|----------------|----------------|---------------*|
A|*--------1------|----------------|---------1------|---------------*|
E|--3-1--3----3-1-|-3--1~----------|--3-1--3----3-1-|-3--1~----------|

G|----------------|----------------|
D|*---------------|---------------*|
A|*--------1------|---------------*|
E|--3-1--3----3-1-|-3--1~----------|

G|----------------|----------------|----------------|----------------|
D|*---------------|----------------|----------------|---------------*|
A|*4-4-4-4-4-4-4-4|-6-6-6-6-6-6-6-6|----------------|---------------*|
E|----------------|----------------|-6~-------------|----------------|

Chorus:

G|----------------|----------------|---------------|--------|
D|*---------------|---------------*|*--------------|-------*|
A|*-----2-3-3-----|-----4-5-6-----*|*-------1------|----1-1*|
E|-1--1------2--3-|4--4-------6--6/|-3-1--3----3-1-|-3------|

G|----------------|----------------|---------------|--------|
D|*---------------|---------------*|*--------------|-------*|
A|*-----2-3-3-----|-----4-5-6-----*|*-------1------|----1-1*|
E|-1--1------2--3-|4--4-------6--6/|-3-1--3----3-1-|-3------|

G|----------------|----------------|---------------|-----------------|
D|*---------------|---------------*|*--------------|-----------------|
A|*-----2-3-3-----|-----4-5-6-----*|*-------1------|----1--1-------1-|
E|-1--1------2--3-|4--4-------6--6/|-3-1--3----3-1-|-3---------3-----|

G|----------------|--------|
D|----------------|-------*|
A|---------1------|----1-1*|
E|--3-1--3----3-1-|-3------|

G|----------------|----------------|----------------|----------------|
D|*---------------|----------------|----------------|---------------*|
A|*4-4-4-4-4-4-4-4|-6-6-6-6-6-6-6-6|----------------|---------------*|
E|----------------|----------------|-3~-------------|----------------|
Comments