Soundgarden - Pretty Noose Chords & Tabs

 

Pretty Noose Chords & Tabs

Soundgarden Chords & Tabs

Version: 4 Type: Tab 0 ratings
1 star 2 stars 3 stars 4 stars 5 stars
comments

Pretty Noose Tab

   
Song:Pretty Noose                    
Band:Soundgarden
Album:Down on the Upside


Tuning: Dropped-D  

Kim Thayl Guitar-intro

e|---------------------------------||-------------------| 
B|---------------------------------||-------------1/5b--| 
G|-----3-2--------------3-2--------||-----3-2-----------| 
D|---------3-2--------------2-3-0--||---------2-3-------|
A|-3-3---------1-3--3^-3-----------||-3-3---------------|
D|---------------------------------||-------------------|

Chris Cornell Guitar-Verse

e|-----------------------------------------------------------------------------|
B|-----------------------------------------------------------------------------|
G|----------3-3-3-3/8-8-8-8--1-1-1-1-1-----------------------------------------|
D|-5-5-5-5--3-3-3-3/8-8-8-8--2-2-2-2-2--3-3-3-3-3-3-3-3--10-10-10/15----15-----|
A|-5-5-5-5--1-1-1-1/6-6-6-6--2-2-2-2-2--3-3-3-3-3-3-3-3--10-10-10/15-15----15--|
D|-5-5-5-5------------------------------3-3-3-3-3-3-3-3--10-10-10/15-----------|

This   “I caught the moon today Pick it up And throw it away all right”
is the 
Part:

e|------------| This is the part pre-chorus
B|------------|
G|------------|
D|-2/3/4/7/6--|
A|-2/3/4/7/6--|
D|-2/3/4/7/6--|

Chris Cornell Guitar-Chorus

e|-----------------------------------------------------------------------------|
B|-----------------------------------------------------------------------------|
G|------------3-3-3-3-3-------------------8-8-8-8-8-------------4-4-4-4-4-4-4--|
D|-5-5-5-5-5--3-3-3-3-3--3-3-3-3-3/6-6-6--8-8-8-8-8--6-6-6-6-6--4-4-4-4-4-4-4--|
A|-5-5-5-5-5--1-1-1-1-1--3-3-3-3-3/6-6-6--6-6-6-6-6--6-6-6-6-6--2-2-2-2-2-2-2--|
D|-5-5-5-5-5-------------3-3-3-3-3/6-6-6-------------6-6-6-6-6-----------------|

This    “Common ruse dirty face Pretty noose is pretty hate 
Is the     And I don’t like What you got me hanging from”                        
Part:


e|---------------------|  This is the part pre-intro2
B|---------------------|
G|------x-x-3-3-x-x-1--|
D|-5-5--x-x-3-3-x-x-2--|
A|-5-5--x-x-1-1-x-x-2--|
D|-5-5-----------------|



Kim Thayl Guitar-intro

e|---------------------------------||-------------------| 
B|---------------------------------||-------------1/5b--| 
G|-----3-2--------------3-2--------||-----3-2-----------| 
D|---------3-2--------------2-3-0--||---------2-3-------|
A|-3-3---------1-3--3^-3-----------||-3-3---------------|
D|---------------------------------||-------------------|

Chris Cornell Guitar-Verse2

e|-----------------------------------------------------------------------------|
B|-----------------------------------------------------------------------------|
G|----------3-3-3-3/8-8-8-8--1-1-1-1-1-----------------------------------------|
D|-5-5-5-5--3-3-3-3/8-8-8-8--2-2-2-2-2--3-3-3-3-3-3-3-3--10-10-10/15----15-----|
A|-5-5-5-5--1-1-1-1/6-6-6-6--2-2-2-2-2--3-3-3-3-3-3-3-3--10-10-10/15-15----15--|
D|-5-5-5-5------------------------------3-3-3-3-3-3-3-3--10-10-10/15-----------|

This   “I caught the moon today Pick it up And throw it away all right”
is the 
Part:

e|------------| This is the part pre-chorus
B|------------|
G|------------|
D|-2/3/4/7/6--|
A|-2/3/4/7/6--|
D|-2/3/4/7/6--|


Chris Cornell Guitar-Chorus2
[ Tab from: http://www.guitartabs.cc/tabs/s/soundgarden/pretty_noose_tab_ver_4.html ]
e|-----------------------------------------------------------------------------|
B|-----------------------------------------------------------------------------|
G|------------3-3-3-3-3-------------------8-8-8-8-8-------------4-4-4-4-4-4-4--|
D|-5-5-5-5-5--3-3-3-3-3--3-3-3-3-3/6-6-6--8-8-8-8-8--6-6-6-6-6--4-4-4-4-4-4-4--|
A|-5-5-5-5-5--1-1-1-1-1--3-3-3-3-3/6-6-6--6-6-6-6-6--6-6-6-6-6--2-2-2-2-2-2-2--|
D|-5-5-5-5-5-------------3-3-3-3-3/6-6-6-------------6-6-6-6-6-----------------|

This    “Common ruse dirty face Pretty noose is pretty hate 
Is the     And I don’t like What you got me hanging from”                        
Part:


Kim Thayl Guitar-solo

e|-----------------------------------------------------------------------------|
B|-12----13b-13b-13r12---------------------------------------------------------|
G|----11---------------13^13\3/5\3-3/9\3-----3-5b-5r-5-3-----------------------|
D|---------------------------------------5-7-------------5^-5-2^-3^-2-2^-5^-2~-|
A|-----------------------------------------------------------------------------|
D|-----------------------------------------------------------------------------|


e|-----------------------------------------------------------------------------|
B|-13b-13----13b-13------------------------------------------------------------|
G|--------11--------14-11~11-14\11~14\11~11------------------------------------|
D|------------------------------------------12~-12^-12^-12^-12^-12b-15-17^-17--|
A|-----------------------------------------------------------------------------|
D|-----------------------------------------------------------------------------|




Chris Cornell Guitar-Chorus3

e|---------------------------------------|
B|---------------------------------------|
G|------------3-3-3-3-3------------------|
D|-5-5-5-5-5--3-3-3-3-3--3-3-3-3-3/6-6-6-|
A|-5-5-5-5-5--1-1-1-1-1--3-3-3-3-3/6-6-6-|
D|-5-5-5-5-5-------------3-3-3-3-3/6-6-6-|

This is  “Common ruse dirty face Pretty noose is pretty hate”
The 
Part:

e|-----------------------------------------------------|
B|-----------------------------------------------------|
G|-----------------------------------------------------|
D|-5-5/8\7\3-0--5-5/8/10-10\8--5-5/8/10-10\8--8-8\7\5--|
A|-5-5/8\7\3-0--5-5/8/10-10\8--5-5/8/10-10\8--8-8\7\5--|
D|-5-5/8\7\3-0--5-5/8/10-10\8--5-5/8/10-10\8--8-8\7\5--|

This is   “I don’t care what you got 
The        I don’t care what you need 
Part:      I don’t want anything”
 

Chris Cornell Guitar:Final Chorus 

e|-----------------------------------------------------------------------------|
B|-----------------------------------------------------------------------------|
G|-----------------------------------------------------------------------------|
D|-8-8---8-----------4---4---4---4---4--8-8---8-----------4---4---4---4---4----|
A|-6---6----6-6---6--2-2---2---2---2-2--6---6----6-6---6--2-2---2---2---2-2----|
D|----------6---6--------------------------------6---6-------------------------|

This     
Is the      “And I don’t like What you got me hanging from”                        
Part:       “And I don’t like What you got me hanging from”




e|---------------|  Final 
B|---------------|
G|---------------|
D|-2/3/4/7/6\5---|
A|-2/3/4/7/6\5---|
D|-2/3/4/7/6\5---|

This     “Yeaah!!!”
Is the      
Part:       


Chris Cornell vocals-Lyrics
I caught the moon today
Pick it up
And throw it away all right
I got the perfect steal
A cleaner love
With a dirty feel all right
Fallout and take the bait
Eat the fruit
And kiss the snake goodnight


Common ruse dirty face
Pretty noose is pretty hate
And I don’t like
What you got me hanging from


Let your motor race
Pick it up
And get this mother gone
Out from and far away
The wooden snake
This thing has got me on


Diamond rope silver chain
Pretty noose is a pretty pain
And I don’t like
What you got me hanging from


I don’t care what you got
I don’t care what you need
I don’t want anything
And I don’t like what
You got me hanging from

Tab made by ANDREA the best Soundgarden fan!!!!

Italy
Comments