Soundgarden - Pretty Noose Chords & Tabs

 

Pretty Noose Chords & Tabs

Soundgarden Chords & Tabs

Version: 1 Type: Bass Tab 0 ratings
1 star 2 stars 3 stars 4 stars 5 stars
comments

Pretty Noose Bass Tab

Pretty Noose - Soundgarden

r=rest

  intro
  (x4)  verse measure (x3)
G|-----|----------------------------------------------------------|
D|-----|5--5-7-8--8-8-1--1-2-3--3-3-------------------------------|
A|3----|----------------------------3--3-5-6--6-7-8--8--8-6-8-6-6-|
E|-----|---------------------------------------------------8---8--|

  bridge (drop the end part of the last
          verse measure and begin this)  chorus riff
G|--------------------------------------|--------------------------------|
D|--5-7-8-7-5--5r--1--1r--3--3r--6--6r--|11111111555555559999999999999999|
A|8-------------------------------------|--------------------------------|
E|--------------------------------------|--------------------------------|
[ Tab from: http://www.guitartabs.cc/tabs/s/soundgarden/pretty_noose_btab.html ]
  chorus end
G|---------------------------|
D|5--5r--11111r------------------|
A|--------------3------------|
E|-------------------------------|

  solo
G|------------------------------------------------------------------------------------
D|5--5r--1--1r--3--3r--3--3r------------------------------5--5r--1--1r--3--3r--3--3r--
A|----------------------------3--3-5-6--6r--8--8r--8--8r------------------------------
E|------------------------------------------------------------------------------------

---------------------|
---------------------|
3--3-5-6--6r--8--8r--| followed by bridge
---------------------|

 "and I don't care what you got"
  (x3)
G|----3-2-----|
D|5-5-----3---|
A|------------|
E|------------|

A tab by Achilles (blue_sincere@hotmail.com)

Comments