Soundgarden - Outshined Chords & Tabs

 

Outshined Chords & Tabs

Soundgarden Chords & Tabs

Version: 2 Type: Tab 1 rating
1 star 2 stars 3 stars 4 stars 5 stars
comments

Outshined Tab

I noticed a few things were wrong in this tab. So I did my best to correct it.

Intro

------------------------------------------------------------
------------------------------------------------------------
------------------------------------------------------------
------------------5-----------------------------------------
----0-0-3-5-3-0-3-5-6-5-3-5---------------------------------
----0-0-3-5-3-0-3---6-5-3-5---------------------------------
    . .                                                     pm                                 

for the part right before the chorus with the ringing chords,
I play this.

---2-2-2-2-2-2------2-2-2-2-2-3-----5-|--------------------
---3-3-3-3-3-3------3-3-3-3-3-3---5---|--------------------
---2-2-2-2-2-0------2-2-2-2-2-0-0-----|-7/9--9-9-9-9-------
---0-0-0-0-0-0------0-0-0-0-0-0-------|-x/x--x-x-x-x----2--
------------------------------2-------|-5/7--7-7-7-7----2--
------------------------------3-------|-----------------0--
this also gets repeated a few times, until they go back to drop D grunge
for the chorus. Right before the chorus starts slam, the lowest two strings
for the D.
[ Tab from: http://www.guitartabs.cc/tabs/s/soundgarden/outshined_tab_ver_2.html ]
then play..
-------------------------------------------------------------------
-------------------------------------------------------------------
-------------------------------------------------------------------
-------------------------------------------------------------------
-7-5-0-3-5-0---3-5-0-3-0^3-6-6-6-5-5-3-0-3p0-0-3-3-3p0-3p0-3-3/5v--
-7-5-0-3-5-0---3-5-0-3-0^3-6-6-6-5-5-3-0---------------------------
the single note riff at the end gets extended at the end of the chorus,
and then play this to lead back into the verse.

----------------------------------------------------------
----------------------------------------------------------
----------------------------------------------------------
--10---10------10---10------10----10-----10----10---------
--10---10------10---10------10----10-----10----10---------
--8----8-------8----8-------8-----8------8-----8----------
 out-shined   out-shined   out-shined   out-shined

then back to the first riff.

now is my official attempt at those chord progressions when they quiet down
near the end of the song. Please forgive me if I offend any Soundgarden fans othere.

----------------------------------------------------------
----------------------------------------------------------
----------------------------------------------------------
---7-7-7-9-7-7-5-4-5-4-5-4-5----5-------------------------
---5-5-5-5-5-5-5-5-5-5-5-5-5----3-(let ring, or strum again, your choice)
----------------------------------------------------------



Corrected by Jake Saporta

Comments