Soundgarden - Outshined Chords & Tabs

 

Outshined Chords & Tabs

Soundgarden Chords & Tabs

Version: 1 Type: Bass Tab 0 ratings
1 star 2 stars 3 stars 4 stars 5 stars
comments

Outshined Bass Tab

From: "rodri lopez" 
Subject: outshined tab (soundgarden)
Date: Tue, 01 Dec 1998 06:56:12 PST

Soundgarden - Outshined
Drop D tuning. 

Intro & Verse 
G-----------------------------|
D-----------------------------|
A-----------------5-----------|
D--0--0--3-5-3-0-----6-5-3/---|		    
                            
[ Tab from: http://www.guitartabs.cc/tabs/s/soundgarden/outshined_btab.html ]
Before chorus "Oooh, gets mystified..          After a couple of times
G--------------------------------------------|-----------5-5h7----------------
D--------------------------------------------|-5h7-7-7-7----------------------
A----------5--5-5--10-10-9--9-9-7-7-7\5-5-5--|--------------------------------
D-0--0-0-0-----------------------------------|--------------------------------

Chorus
G----------------------------------------------------------------------------         
D------------------------------------------------0-----0-----0-------0-----0-(*)                 
A--------------------------------------------3h5----3h5----3h5----3h5----3h5-        
D--7-5-0-3-5-0-----5-3-0-3-0h3-6-6-6-5-3-0-----------------------------------       
Show me the...     I like..There I´m down..      

Repeat chorus
(*): It´s not the real riff, but it´s a good improvisation

Comments