Soundgarden - Nothing To Say Chords & Tabs

 

Nothing To Say Chords & Tabs

Soundgarden Chords & Tabs

Version: 3 Type: Tab 0 ratings
1 star 2 stars 3 stars 4 stars 5 stars
comments

Nothing To Say Tab

Band: Soundgarden
Song: Nothing To Say
Album: Screaming Life / Fopp
Tuning: Drop D


INTRO
e||------------------------------------------||
B||------------------------------------------||
G||------------------------------------------||
D||--12--------------------------------------||
A||--12--------------------------------------||
D||--12--------------------------------------||

e||---------------------------------||
B||---------------------------------||
G||---------------------------------||
D||---------------------------------||
A||---------------------------------||
D||--0--0-0-2~-----0--0-0-5-4~------||

VERSE
e||--------------------------------------||
B||--------------------------------------||
G||--9-11-11-11-9~---11-14-14-14-12-11~--||
D||---------------------0--0--0--0-------||
A||--------------------------------------||
D||--------------------------------------||

BRIDGE
e||---------------------------------||
B||---------------------------------||
G||---------------------------------||
D||---------------------------------||
A||---------------------------------||
D||--0--0-0-2~-----0--0-0-5-4~------||

CHORUS
e||-------------------------------------------------------||
B||-------------------------------------------------------||
G||-------------------------------------------------------||
D||-------------------------------------------------------||
A||-------------------------------------------------------||
D||-10-8--12-----11--9-8--12b-11---9-8--6-7--7-6--0--2-2--||
[ Tab from: http://www.guitartabs.cc/tabs/s/soundgarden/nothing_to_say_tab_ver_3.html ]
POST CHORUS
e||---------------------------------||
B||---------------------------------||
G||---------------------------------||
D||---------------------------------||
A||-----------2~--------------------||
D||--0--0-0-2------0--0-0-5-4~------||

VERSE
e||--------------------------------------||
B||--------------------------------------||
G||--9-11-11-11-9~---11-14-14-14-12-11~--||
D||---------------------0--0--0--0-------||
A||--------------------------------------||
D||--------------------------------------||

BRIDGE
e||---------------------------------||
B||---------------------------------||
G||---------------------------------||
D||---------------------------------||
A||---------2^bend------------------||
D||--0--0-0--------0--0-0-5-4~------||


CHORUS
e||-------------------------------------------------------||
B||-------------------------------------------------------||
G||-------------------------------------------------------||
D||-------------------------------------------------------||
A||-------------------------------------------------------||
D||-10-8--12-----11--9-8--12b-11---9-8--6-7--7-6--0--2-2--||

POST CHORUS 2
 Feedback through out
e||---------------------------------||
B||---------------------------------||
G||---------------------------------||
D||--12-----------------------------||
A||--12-----------------------------||
D||--12-----------------------------||

BRIDGE
e||-------------------------------||
B||-------------------------------||
G||-------------------------------||
D||-------------------------------||
A||----------7tr8-----------------||
D||--0--0-0--------0--0-0-5-4~----||

OUTRO
Gradually slower
e||-------||
B||-------||
G||-------||
D||--5-4--||
A||--5-4--||
D||--5-4--||
Comments