Soundgarden - Mailman Chords & Tabs

 

Mailman Chords & Tabs

Soundgarden Chords & Tabs

Version: 2 Type: Bass Tab 0 ratings
1 star 2 stars 3 stars 4 stars 5 stars
comments

Mailman Bass Tab

I'm pretty sure this is right. If there are any errors please let me know.
I play this on my 5-string just to reduce buzz and things of that sort.
email: austinhendrixsg@yahoo.com

Tuning: CGDG

Intro
G|----------------------------------------------------------------|
D|-------------------5------5-------5---------------5--------5----|
G|-------------------5------5-------5---------------5--------5----|
C|-3-3-3-3-3-3-3-3-----0--0---0--0-----0--0--5-4-3-----0--0-------|

G|----------------------------------------------------------------|
D|-------5-------------5--------5--------5s8--8-8-8-8-8-8-8s-5----|
G|-------5-----3-------5--------5--------5s8--8-8-8-8-8-8-8s-5----|
C|-0--0-----0----5-4------0--0-----0--0---------------------------|

G|-------------------------|
D|-5-------5---------------|
G|-5-------5-----------3-5-|
C|---0--0----0--0--5-3-----|

Verse
G|----------------------------------------------------------------|
D|5------5-------5---------------5--------5-----------------------|
G|5------5-------5---------------5--------5-----------------------|
C|--0--0---0--0-----0--0--5-4-3-----0--0--------------------------|

G|------------------------------------------------------------------|
D|-------5-------------5--------5--------5s8--8-8-8-8-8-8-8s5-------|
G|-------5-----3-------5--------5--------5s8--8-8-8-8-8-8-8s5-------|
C|-0--0-----0----5-4------0--0-----0--0-----------------------------|

G|-------------------------|
D|-5-------5---------------|
G|-5-------5-----------3-5-|
C|---0--0----0--0--5-3-----|

G|----------------------------------------------------------------|
D|5------5-------5---------------5--------5-----------------------|
G|5------5-------5---------------5--------5-----------------------|
C|--0--0---0--0-----0--0--5-4-3-----0--0--------------------------|

G|------------------------------------------------------------------|
D|-------5-------------5--------5--------5s8--8-8-8-8-8-8-8s5-------|
G|-------5-----3-------5--------5--------5s8--8-8-8-8-8-8-8s5-------|
C|-0--0-----0----5-4------0--0-----0--0-----------------------------|

G|---------------------|
D|-5-------5-----------|
G|-5-------5-----------|
C|---0--0----0-3h5p3-3-|

Chorus 1

G|---------------------------------------------------------------|
D|---------------------------------------------------------------|
G|----------------5----------------------------------------------|
C|-3s8-10-10-7-7-----33h5-3-3s8-10-10-7-7--0--33h5-3-3s8--10-10-7|

G|----------------------------------------------------------------|
D|5------5-------5---------------5--------5-----------------------|
G|5------5-------5---------------5--------5-----------------------|
C|--0--0---0--0-----0--0--5-4-3-----0--0--------------------------|

G|------------------------------------------------------------------|
D|-------5-------------5--------5--------5s8--8-8-8-8-8-8-8s5-------|
G|-------5-----3-------5--------5--------5s8--8-8-8-8-8-8-8s5-------|
C|-0--0-----0----5-4------0--0-----0--0-----------------------------|

G|-------------------------|
D|-5-------5---------------|
G|-5-------5-----------3-5-|
C|---0--0----0--0--5-3-----|

Verse 2
G|----------------------------------------------------------------|
D|5------5-------5---------------5--------5-----------------------|
G|5------5-------5---------------5--------5-----------------------|
C|--0--0---0--0-----0--0--5-4-3-----0--0--------------------------|

G|------------------------------------------------------------------|
D|-------5-------------5--------5--------5s8--8-8-8-8-8-8-8s5-------|
G|-------5-----3-------5--------5--------5s8--8-8-8-8-8-8-8s5-------|
C|-0--0-----0----5-4------0--0-----0--0-----------------------------|

G|-------------------------|
D|-5-------5---------------|
G|-5-------5-----------3-5-|
C|---0--0----0--0--5-3-----|
[ Tab from: http://www.guitartabs.cc/tabs/s/soundgarden/mailman_btab_ver_2.html ]
G|----------------------------------------------------------------|
D|5------5-------5---------------5--------5-----------------------|
G|5------5-------5---------------5--------5-----------------------|
C|--0--0---0--0-----0--0--5-4-3-----0--0--------------------------|

G|------------------------------------------------------------------|
D|-------5-------------5--------5--------5s8--8-8-8-8-8-8-8s5-------|
G|-------5-----3-------5--------5--------5s8--8-8-8-8-8-8-8s5-------|
C|-0--0-----0----5-4------0--0-----0--0-----------------------------|

G|---------------------|
D|-5-------5-----------|
G|-5-------5-----------|
C|---0--0----0-3h5p3-3-|

Chorus 2
G|---------------------------------------------------------------|
D|---------------------------------------------------------------|
G|----------------5----------------------------------------------|
C|-3s8-10-10-7-7-----33h5-3-3s8-10-10-7-7--0--33h5-3-3s8--10-10-7|

G|---------------------------------------------------------------|This
D|---------------------------------------------------------------|Line
G|-5------5------5-------3-2-1-----------------------------------| X4
C|---0--0---3--3---5--5------------------------------------------|

G|---------------------------------------------------------------|This
D|-5------5-------5s8-8------------------------------------------|Line
A|-5------5-------5s8-8------------------------------------------|X3
E|---0--0---0--0--------0-5-4-3----------------------------------|

G|---------------------------------------------------------------|
D|-5------5-------5s8-8-8-8-8-8-8-8------------------------------|
A|-5------5-------5s8-8-8-8-8-8-8-8------------------------------|
E|---0--0---0--0-------------------------------------------------|

Verse 3
G|----------------------------------------------------------------|
D|5------5-------5---------------5--------5-----------------------|
G|5------5-------5---------------5--------5-----------------------|
C|--0--0---0--0-----0--0--5-4-3-----0--0--------------------------|

G|------------------------------------------------------------------|
D|-------5-------------5--------5--------5s8--8-8-8-8-8-8-8s5-------|
G|-------5-----3-------5--------5--------5s8--8-8-8-8-8-8-8s5-------|
C|-0--0-----0----5-4------0--0-----0--0-----------------------------|

G|-------------------------|
D|-5-------5---------------|
G|-5-------5-----------3-5-|
C|---0--0----0--0--5-3-----|

G|----------------------------------------------------------------|
D|5------5-------5---------------5--------5-----------------------|
G|5------5-------5---------------5--------5-----------------------|
C|--0--0---0--0-----0--0--5-4-3-----0--0--------------------------|

G|------------------------------------------------------------------|
D|-------5-------------5--------5--------5s8--8-8-8-8-8-8-8s5-------|
G|-------5-----3-------5--------5--------5s8--8-8-8-8-8-8-8s5-------|
C|-0--0-----0----5-4------0--0-----0--0-----------------------------|

G|---------------------|
D|-5-------5-----------|
G|-5-------5-----------|
C|---0--0----0-3h5p3-3-|

Chorus 3
G|---------------------------------------------------------------|
D|---------------------------------------------------------------|
G|----------------5----------------------------------------------|
C|-3s8-10-10-7-7-----33h5-3-3s8-10-10-7-7--0--33h5-3-3s8--10-10-7|

guitar break then...
G|---------------------------------------------------------------|This
D|---------------------------------------------------------------|Line
G|-5------5------5-------3-2-1-----------------------------------| X6
C|---0--0---3--3---5--5------------------------------------------|

Outro
G|---------------------------------------------------------------|
D|-5s8-8---------------5-----------------------------------------|
G|-5s8-8---------------5-----------------------------------------|
C|----------0-5-4-3-------0--------------------------------------|

It's a great song. Hope everyone enjoys!
-austinhendrixsg
Comments