Soundgarden - Loud Love Chords & Tabs

 

Loud Love Chords & Tabs

Soundgarden Chords & Tabs

Version: 2 Type: Tab 0 ratings
1 star 2 stars 3 stars 4 stars 5 stars
comments

Loud Love Tab

#----------------------------------PLEASE NOTE--------------------------------#
#This file is the author's own work and represents their interpretation of the#
#song. You may only use this file for private study, scholarship, or research.#
#-----------------------------------------------------------------------------#

From: "Kyle Smith" 
Subject: s/soundgarden/loud_love.tab
Date: Sun, 31 May 1998 16:51:28 PDT

Band:Soundgarden
Song:Loud Love
Album:Louder Than Love
Transcribed By:Smith
Email:ktulu54@hotmail.com

\ =Slide Down
/ =Slide Up
^ =Bend

Intro:
e---------------------------------------------------------|
B---15--/17--/18--\17--\13--/17--/18--\17--\13--/17--/18--|
G---------------------------------------------------------|
D---------------------------------------------------------|
A---------------------------------------------------------|
E---------------------------------------------------------|

e---------------------------------------------------------|
B--\17--\13--/17--/18--\17--\13--/17--/18--\17--\15--(15)-|
G---------------------------------------------------------|
D---------------------------------------------------------|
A---------------------------------------------------------|
E---------------------------------------------------------|

Main Riff:
e-------------------------------------|
B-------------------------------------|
G-------------------------------------|
D------7--------------------------5^--|
A----5-----5--7---4--7---5--7---7-----|
E--O-----O------O------O------O-------|

Post Chorus:
e-------------------------------------|
B-------------------------------------|
G-------------5-------------------7^--|
D--7----5--7--5--7---5---7--5--7--7^--|
A--7----5--7--3--7---5---7--5--7--5^--|
E--5----3--5-----5---3---5--3--5------|

Lyrics:By Chris Cornell

Verse 1: There's No Time To Keep It Low
			I've been Deaf now I Want Noise
			You Stay Down
			But I Wont be Quiet
			I'll Hammer On Until You Fight
Chorus:  Loud Love
Loud Love
Loud Love
Loud Love
[ Tab from: http://www.guitartabs.cc/tabs/s/soundgarden/loud_love_tab_ver_2.html ]
Verse 2: If You've Got Some Time To Kill
         Slow Resistance Wins The War
         Well I Know
         But That's No Way to Go
You Can't Resist The Louder Pull

Post:    You Can't Resist The Louder Pull

Verse 3: Well That's Right
I Want Something To Explode
         I've Been Deaf
         Now I want Noise

#----------------------------------PLEASE NOTE--------------------------------#
#This file is the author's own work and represents their interpretation of the#
#song. You may only use this file for private study, scholarship, or research.#
#-----------------------------------------------------------------------------#

Date: Fri, 22 May 1998 21:13:24 PDT
From: Kyle Smith 
Subject: s/soundgarden/loud_love.tab

Band: Soundgarden
Song: Loud Love
Album: Louder than Love
Transcribed by: Smith
Email: ktulu54@interlog.com

Intro: Feedback
e--------------------------|
B-15-17-18-17-13-17-18-17--|
G--------------------------|
D--------------------------|
A--------------------------|
E--------------------------|

e--------------------------|
B-13-17-18-17-13-17-18-17--|
G--------------------------|
D--------------------------|
A--------------------------|
E--------------------------|

e--------------------------|
B-15~~~~~~~~~~~~~----------|
G--------------------------|
D--------------------------|
A--------------------------|
E--------------------------|

Main Riff:
e-----------------------------|
B-----------------------------|
G-----------------------------|
D----5----------------------5^|
A--7-----5-7---4-7---5-7--7---|
E0-----0-----0-----0-----0----|

Post Chorus:
e-----------------------------|
B-----------------------------|
G---------5---------------7---|
D-7---5-7-5---7--5--7-5-7-7---|
A-7---5-7-3---7--5--7-5-7-5---|
E-5---3-5-----5--3--5-3-5-----|

Lyrics: By Chris Cornell

Verse 1:
There's no time to keep it low
I've been deaf now I want noise
You stay down
But I won't be quiet
I'll hammer on until you fight

Chorus:
Loud Love
Loud Love
Loud Love
Loud Love

Verse 2:
If you've got some time to kill
Slow resistance wins the war
Well I know
But that's no way to go
You can't resist the louder pull

Post-Chorus:
You can't resist the louder pull

Listen to the song for timing and lyrics.
Email me: ktulu54@hotmail.com
Comments