Soundgarden - Limo Wreck Chords & Tabs

 

Limo Wreck Chords & Tabs

Soundgarden Chords & Tabs

Version: 1 Type: Tab 0 ratings
1 star 2 stars 3 stars 4 stars 5 stars
comments

Limo Wreck Tab

   
#----------------------------------PLEASE NOTE--------------------------------#
#This file is the author's own work and represents their interpretation of the#
#song. You may only use this file for private study, scholarship, or research.#
#-----------------------------------------------------------------------------#

Date: Tue, 19 May 1998 15:25:27 -0500
From: Keith Barron 
Subject: s/soundgarden/limo_wreck.tab

Song: Limo Wreck
Band: Soundgarden
Album: Superunknown
Music: Cameron/Thayil
Lyrics: Cornell
Tuning: CGDGBE

Intro:
(6/8)
B---------------------|
G-------5---------5---|
D---------3--2------0-|
G-----5---------5-----|
C--0------------------|
[ Tab from: http://www.guitartabs.cc/tabs/s/soundgarden/limo_wreck_tab.html ]
 
Verse Intro:
(15/4)?
E-------------------------------------------------------------|
B-------------------------------------------------------------|
G---------------[12]------------[5]-------0--------0-------0--|
D----------[12]-------------[5]---------5--------0-------0----|
G-----[12]-------------[5]------------5--------0-------0------|
C--10----------------4--------------3-------/8------\7--------|

Verse:
(15/4)                      (18/4)
G||-----------------------||-------------------------0-------0-|
D||o---------------------o||-----------------------0-------0---|
G||o-7-----------7-4--3--o||-/7-----------7-4----0-------0-----|
C||------8---7------------||------8---7--------8-------7-------|


Chorus:
(15/4)
G---------------------------------|
D-------4--4-2--2-----------------|
G--6--6-4--4-2--2-6-3---3---2-2-2-|
C--6--6-----------6-3---3---2-2-2-|

I don't know any of the rest. Kim bends over the verse riff for the
prechorus. The third verse is short and the power chord at the end of the
third verse is this:

G-------------------------|
D-3-3-3-3-3-3-3-3-3-3-3-3-|
G-3-3-3-3-3-3-3-3-3-3-3-3-|
C-------------------------|

palm mute that.


After the second intro the main figure is played without the last set of
notes. (4/4 time) with Kim playing some unison bends. I don't know the bends.
Comments