Soundgarden - Let Me Drown Chords & Tabs

 

Let Me Drown Chords & Tabs

Soundgarden Chords & Tabs

Version: 2 Type: Tab 0 ratings
1 star 2 stars 3 stars 4 stars 5 stars
comments

Let Me Drown Tab

   
LET ME DROWN by Soundgarden
from Superunknown

Tuning(low to high:D,A,D,G,B,E)

E---------------------------------------
B---------------------------------------
G---------------------------------------
D---------------------------------------
A---------------------------------------
D--3h4h5--0--3b---0--3b---0--3b---3b--0-


E---------------------------------------
B---------------------------------------
G---------------------------------------
D---------------------------------------
A---------------------------------------
D--7h8h9--0--3b---0--3b---0--3b---3b--0-


E------------------------------------------
B------------------------------------------
G------------------------------------------
D------------------------------------------
A------------------------------------------
D--10h11h12--0--3b---0--3b---0--3b---3b--0-

[ Tab from: http://www.guitartabs.cc/tabs/s/soundgarden/let_me_drown_tab_ver_2.html ]
E---------------------------------------
B---------------------------------------
G---------------------------------------
D--3/4/5--------------------------------
A---------------------------------------
D--3/4/5--0--3b---0--3b---0--3b---3b--0-


Chorus

E----------------------------------------------------------
B----------------------------------------------------------
G----------------------------------------------------------
D--10h-12--12--12--12--10--7-/15----15--15--15--15--12--10- X 3 
A--10h-12--12--12--12--10--7-/15----15--15--15--15--12--10-
D--10h-12--12--12--12--10--7-/15----15--15--15--15--12--10-

then this little riff

E--------------------
B--------------------
G--------------------
D--------------------
A-----2b----2b-------
D--5-----5------5--3-


after outro chorus comes this riff

E-------------------------------------
B-------------------------------------
G-------------------------------------
D--------------------------3h-5-----3-
A-----2b-----2b-----2b--------------3-
D--5------5------5------5--------0--3-


Comments