Soundgarden - He Didn't Chords & Tabs

 

He Didn't Chords & Tabs

Soundgarden Chords & Tabs

Version: 1 Type: Tab 0 ratings
1 star 2 stars 3 stars 4 stars 5 stars
comments

He Didn't Tab

----------------------------------PLEASE NOTE--------------------------------#
#This file is the author's own work and represents their interpretation of the#
#song. You may only use this file for private study, scholarship, or research.#
#-----------------------------------------------------------------------------#

From: Greg O'Beirne 
additions: "Keith D. Barron II" 
Subject: Soundgarden -- 'HE DIDN'T'
Date: Fri, 27 Feb 1998 15:30:41 PST

"HE DIDN'T"
Soundgarden
Music: M. Cameron
Lyrics: C. Cornell

This is my favorite song off of Ultramega OK except for "Incessant Mace" 
and "Beyond the Wheel"
The other tab I saw has all the notes there but they are played wrong. . 
. well thats what I think.

Intro: all harmonics

6/4
-------------------------|-(7)---------------------|--------
-------------------(7)---|-------(7)---------------|--------
-------------(5)---------|-------------(5)---------|--------
-(5)---------------------|-------------------------|--------
-------(4)---------------|-------------------(4)---|--------
-------------------------|-------------------------|--------

Main Guitar Part
[ Tab from: http://www.guitartabs.cc/tabs/s/soundgarden/he_didnt_tab.html ]
3/4          
-----------------------|-----------------------|
-----------------------|-----------------------|
-2--3--2h3p2-----------|-2--3--2h3p2-----------|
--------------2--3--4--|--------------4--3--2--|
-----------------------|-----------------------|
-----------------------|-----------------------|

4/4
------------------------|
------------------------|
------------------------|
----------------2--3--4-|
-4--3--2--3--4----------|
------------------------|

Verse Part: with palm muting



3/4                          4/4
--------------|-------------|-----------------|
--------------|-------------|-----------------|
--2-3-2-------|-2-3-2-------|-----------------|
--------2-3-4-|-------4-3-2-|-----------2-3-4-|
--------------|-------------|-4-3-2-3-4-------|
--------------|-------------|-----------------|

I dont know what the hell the interlude is.
But that part sucks anyway. 
During the verse and main guitar part the bass plays the same thing. It 
doesnt play at all in the intro and I don't know what it plays during 
the interlude thing.




______________________________________________________
Get Your Private, Free Email at http://www.hotmail.com
Comments