Soundgarden - Hands All Over Chords & Tabs

 

Hands All Over Chords & Tabs

Soundgarden Chords & Tabs

Version: 1 Type: Tab 0 ratings
1 star 2 stars 3 stars 4 stars 5 stars
comments

Hands All Over Tab

   
#----------------------------------PLEASE NOTE--------------------------------#
#This file is the author's own work and represents their interpretation of the#
#song. You may only use this file for private study, scholarship, or research.#
#-----------------------------------------------------------------------------#

From: Keith Barron 
Subject: Hands All Over - Soundgarden
Date: Monday, April 06, 1998 7:33 PM



Song: Hands All Over
Band: Soundgarden
Album: Louder Than Love
Tuning: DADGBE

Great song from LTL. It was a single I believe.

Intro:
e||-------------|-------------||                                 
b||-------------|-------------||
g||o-7--7--7--7-|-7--7--7--7-o||
d||o-0--0--0--0-|-0--0--0--0-o||
a||-------------|-------------||
d||-------------|-------------||

Play that 4 times on the upbeats only (no, its NOT ska) and then this:

e|-5--5--5--5--|/7--7--7--7--|/8--8--8--8--|/10--10--10--10--|
b|-------------|-------------|-------------|-----------------|
g|-2--2--2--2--|/4--4--4--4--|/5--5--5--5--|-/8---8---8---8--|
d|-0--0--0--0--|----0--0--0--|----0--0--0--|------0---0---0--|

Don't touch me!

Main Riff:
g|-------------------------------|------------------------------|
d|----------------------------0--|----------------------------0-|
a|-------------------------------|------------------------------|
d|-0--0-0-3/(5)--0-0--5/(12)-12--|-0--0-0-3/(5)--0-0--5/(12)-12-|

Palm mute during the verses and hit it hard for the choruses.

Between verses Riff:
e----------||-----------------------||---------------------------
b----------||o---------------------o||---------------------------
g----11----||o-11------------11----o||-11---------11b--11--------
d-10----10-||------10-10--10----10--||-----12-12----------12-12--

e----------||-----------------------||--------------------------|
b----------||o---------------------o||--------------------------|
g----11----||o-11------------11----o||-11--------11br--11br-11b-|
d-12----12-||------10-10--10----10--||----12-12-----------------|
 
Pre-chorus: (kill your mother...)
e|---------------------------------|----------------------------|
b|---------------------------------|----------------------------|
g|--5/7-7-7-7-7-7-5--5-5-5-5\4-4\2-|-2/5-5-5-5--5-4-5-4-5-4-4\2-|
d|---------------------------------|----------------------------|
[ Tab from: http://www.guitartabs.cc/tabs/s/soundgarden/hands_all_over_tab.html ]
Play that twice the first two times...four times the last time. The last
time you play the pre-chorus add an open D note every measure.

Chorus: (and I love her...)
e|-------------------------------------|
b|-----------------------------8-8-8-8-|
g|-7-7-7-7-7-7-7-7-7-7-7-7-7-7-7-7-7-7-|
d|-------------------------------------|
a|-5-5-5-5-5-5-5-5-5-5-5-5-5-5-5-5-5-5-|
d|-0-0-0-0-0-0-0-0-0-0-0-0-0-0-0-0-0-0-|

Play that with the main figure during the first two choruses.

Play this with the main figure AFTER the second chorus:
e|------------------------|-----------------------|
b|------------------8~~~--|-----------------3~~~--|
g|-----------------10b~~--|-----------------5b~~--|
d|------------------------|-----------------------|
a|------------------------|-----------------------|
d|------------------------|-----------------------|

Third Verse:
e||-------------|-------------||
b||-------------|-------------||
g||o--7-9-7~~~--|--5-7-5~~~--o||
d||o------------|------------o||
a||-------------|-------------||
d||-------------|-------------||

Play this with the main figure for the last chorus:
e||----------------------------|---------------------------|
b||----------------------------|---------------------------|
g||o-7777777777777777777777777-|-6666666666666666666666666-|
d||o---------------------------|---------------------------|
a||--5555555555555555555555555-|-4444444444444444444444444-|
d||--0000000000000000000000000-|-0000000000000000000000000-|

e|---------------------------|----------------------------||
b|---------------------------|----------------------------||
g|-5555555555555555555555555-|-7777777777777777777777777-o||
d|---------------------------|---------------------------o||
a|-3333333333333333333333333-|-5555555555555555555555555--||
d|-0000000000000000000000000-|-0000000000000000000000000--||

End with something like this: (free time)
e|-----------||-----------------------||---------------|-------||
b|-----------||-----------------------||----/15--------|-(15)--||
g|-7---------||o-7-9-7~~~--5-7-5~~~~-o||----/14--------|-(14)--||
d|-----------||o---------------------o||----/12--------|-(12)--||
a|-5---------||-----------------------||---------------|-------||
d|-0---------||-----------------------||---------------|-------||


Music: Thayil 
     Lyrics: Cornell 
Comments