Soundgarden - Gun Chords & Tabs

 

Gun Chords & Tabs

Soundgarden Chords & Tabs

Version: 1 Type: Tab 0 ratings
1 star 2 stars 3 stars 4 stars 5 stars
comments

Gun Tab

#----------------------------------PLEASE NOTE--------------------------------#
#This file is the author's own work and represents their interpretation of the#
#song. You may only use this file for private study, scholarship, or research.#
#-----------------------------------------------------------------------------#

Date: Sun, 5 Apr 1998 18:08:27 -0500
From: Keith Barron 
Subject: Gun - Soundgarden

Song: Gun
Band: Soundgarden
Album: Louder Than Love
Tuning: DADGBE

The coolest thing about this song is that it starts off really slow (60
bpm?) And gets faster and faster and faster and faster and faster and faster
until a really fast and short guitar solo.

D-/7--| 
A-/7--|
D-/7--|

  Intro Riff A:
D|-----------------|-----------------|------------------|      
A|-----------------|-----------------|-------2-2--(2)\--|      
D|-0-2-3-0-2-3-0-0-|-0-2-3-0-2-3-2-0-|-3-2-0-2-2--(2)\--|      

D|------------------|
A|-------2-2---x-x--|
D|-3-2-0-2-2---x-x--|

  Intro Riff B:
D|---2-3---2-3-----|---2-3---2-3-2---|-3-2---2-2--(2)\--|
A|-----------------|-----------------|-------2-2--(2)\--|
D|-0-----0-----0-0-|-0-----0-------0-|-----0------------|

D|-----------------|
A|-------2-2--(2)/-|
D|-3-2-0-2-2--(2)/-|

  Verse Riff: (palm muted)
D|-----------------|-----------------|------------------|
A|-0-2-3-0-2-3-0-0-|-0-2-3-0-2-3-2-0-|-2-2-0-2-2--x-x-0-|
D|-0-2-3-0-2-3-0-0-|-0-2-3-0-2-3-2-0-|-2-2-0-2-2--x-x-0-|

D|--------------------|
A|-3-2-0-2-2--x-x-x-x-|
D|-3-2-0-2-2--x-x-x-x-|

Then play Riff A twice again. Then the verse again ending it with this:

D|-/7--|
A|-/7--|
D|-/7--|

 Riff after 2nd verse:
D|---------------|-------/7-----|
A|-2-2-0-2-2---0-|-2-2-0-/7---0-|
D|-2-2-0-2-2---0-|-2-2-0-/7---0-|

Pre-Solo Riff:
D|-----------------|------------------|
A|-----------------|------------------|
D|-2-2-0-2-2-2-2-0-|-2-2-0-/7-7-7-7-0-|
[ Tab from: http://www.guitartabs.cc/tabs/s/soundgarden/gun_tab.html ]
Solo Riff:
D|-----------------|-----------------|-------/7----|-------/5---|
A|-----------------|-----------------|-------/7----|-------/5---|
D|-2-2-0-2-2-2-2-0-|-2-2-0-2-2-2-2-0-|-2-0-0-/7----|-2-0-0-/5---|

Then play the pre-solo Riff 4 times again and start the Intro Riff A and B
and the original tempo.

Third Verse (outro):
D|-----------------|-----------------|-------/7--------||
A|-0-2-3-0-2-3-0-0-|-0-2-3-0-2-3-2-0-|-2-2-0-/7--------||
D|-0-2-3-0-2-3-0-0-|-0-2-3-0-2-3-2-0-|-2-2-0-/7--------||

==============================================================================================================

Date: Fri, 10 Apr 1998 15:08:02 -0500
From: Keith Barron 
Subject: s/soundgarden/girl_u_want.tab

Song: Girl U Want
Band: Soundgarden
Originally By: DEVO
Tuning: Standard

Here's a nice DEVO tune made even better by Soundgarden.

For the Intro play this 8 times:
D)----------------------------------|
A)--6h7----6---7-6---7----6h7-------|
E)------0--------------0------------|

Then Play

Chord Riff
D)--5--5------7--7------|
A)--5--5------7--7------|
E)--3--3------5--5------|

Then start the verse and play the First Riff four times and then the Chords
and then the First Riff once and then the Chords and then the First Riff
twice. The repeat for the next verse.

After the second time the chords are repeated, Kim plays this twice: 

E)-----------------------------------|
B)-----------3--------3--5-----------|
G)--4--2--3-----2--3-----------------|
D)--------------------------2--------|
A)-----------------------------------|
E)-----------------------------------|

Bridge:

G)------------|------5----|-----------|-----------------|
D)--3----5----|-3----5----|-5----3----|-7----7----7-----|
A)--3----5----|-3----3----|-5----3----|-7----7----7-----|
E)--1----3----|-1---------|-3----1----|-5--5-5--5-5-----| 

          
D)--------------------------|-------------------|
A)--2--2--2--2--2--2--2--2--|--2--2-------------|
E)--0--0--0--0--0--0--0--0--|--0--0-------------|
Comments