Soundgarden - Fopp Chords & Tabs

 

Fopp Chords & Tabs

Soundgarden Chords & Tabs

Version: 1 Type: Tab

Fopp Tab

#----------------------------------PLEASE NOTE--------------------------------#
#This file is the author's own work and represents their interpretation of the#
#song. You may only use this file for private study, scholarship, or research.#
#-----------------------------------------------------------------------------#

Date: Fri, 13 Mar 1998 14:22:20 PST
From: "Keith D. Barron II" 
Subject: "Fopp" Soundgarden

"Fopp"
by Soundgarden
Standard Tuning

Intro: strum strings while lightly pressing on the 3rd and/or fifth 
frets then play this 4 times:

e---------||---------------------|----------------------|
b---------||---------------------|----------------------|
g-5---3---||---------------------|--------------5---3---|
d-5---3---||-5-5-3-5----3-5----3-|-5-5-3-5----3-5---3---|
a-3---1---||-5-5-3-5----3-5----3-|-5-5-3-5----3-3---1---|
e---------||-3-3-1-3----1-3----1-|-3-3-1-3----1---------|
[ Tab from: http://www.guitartabs.cc/tabs/s/soundgarden/fopp_tab.html ]
Verse:
e---------------------|----------------------|
b---------------------|----------------------|
g---------------------|--------------5---3---|
d-5-5-3-5----3-5----3-|-5-5-3-5----3-5---3---|
a-5-5-3-5----3-5----3-|-5-5-3-5----3-3---1---|
e-3-3-1-3----1-3----1-|-3-3-1-3----1---------|

Chorus: Play first bar 3 times. Then second bar. Then play first bar 3 
times again and go to Post Chorus part.

e-------------------------| |-----------------------------|
b-------------------------| |-----------------------------|
g---------------------3---| |-----------------3---x-x-5---|
d-5--3--5--3-5--3-3-x-3---| |-5--3--5--3--x-x-3---x-x-5---|
a-5--3--5--3-5--3-3-x-1---| |-5--3--5--3--x-x-1---x-x-3---|
e-3--1--3--1-3--1-1-x-----| |-3--1--3--1--x-x-------------|

Post Chorus:
e---------------------------|---------------(8)---(6)----|
b---------------------------|----------------8-----6-----|
g---------------------------|----------------5-----3-----|
d-5---3---------------------|----------------------------|
a---------5---3---1---------|---------------(3)---(5)----|
e----------------------1----|-3-3-1-3---1-3--------------|

Play Scratch Intro first
Then Second Intro Part
Then First Verse
Then Chorus
Then Post Chorus
Then Second Verse
Then Chorus
Then Post Chorus
The Outro Verse
Then Post Chorus