Soundgarden - Fell On Black Days Chords & Tabs

 

Fell On Black Days Chords & Tabs

Soundgarden Chords & Tabs

Version: 1 Type: Tab 0 ratings
1 star 2 stars 3 stars 4 stars 5 stars
comments

Fell On Black Days Tab

#----------------------------------PLEASE NOTE---------------------------------#
#This file is the author's own work and represents their interpretation of the #
#song. You may only use this file for private study, scholarship, or research. #
#------------------------------------------------------------------------------#
Fell On Black Days - Soundgarden
If you listen to this song, you can pick it up pretty easy. Once you learn the rythm it's easy.


[ Tab from: http://www.guitartabs.cc/tabs/s/soundgarden/fell_on_black_days_tab.html ]
 fig 1                   pm-----------                     pm--------
1-------------------------------------------------------------------------------------------|-
2-------------------------------------------------------------------------------------------|-
3--9---------------------------------9--------------------------------9---------------------|-
4--9-------^9-(9)--7--0--------------9-------^9-(9)--7--0-------------9-------^9-(9)--7--0--|-
5--7-------^9-(9)--7--0--7-7-7-7-----7-------^9-(9)--7--0--7-7-7-7----7-------^9-(9)--7--0--|-
6-------x--^7------------8-8-8-8-0--------x--^7------------8-8-8-8-0-------x--^7------------|-
             .5                                .5                               .5
  pm------------
1----------------------------------------------------------------------------------------|-
2-------------------------------------------0--------------------------------------------|-
3----------------9--------------------------0--------------------------------------------|-
4----------------9-------^9--(9)--7--0------x--------------------------------------------|-
5--7-7-7-7-------7-------^9--(9)--7--0--8---7--------------------------------------------|-
6--8-8-8-8-0----------x--^7-------------8---8--------------------------------------------|-
                           .5

play tfill 2

1---------------------------------------------------0--0--------------------------------------|-
2---------------------------------------------------0--0--------------------------------------|-
3-----------------------------------------7---------0--0--------------------------------------|-
4----9---9--9--9-----9-----9---(9)\7--7---7---------2--2--------------------------------------|-
5----7---7--7--7-----7-----9---(9)\7--7---5---------3--3--------------------------------------|-
6----7---7--7--7--x--7--x--7---(7)\5--5-------------------------------------------------------|-

play this part right after the verse, it leads into the solo



now play the intro riff during the chorus(fig1)


good luck
Chad
Comments