Soundgarden - Bones Of Birds Chords & Tabs

 

Bones Of Birds Chords & Tabs

Soundgarden Chords & Tabs

Version: 2 Type: Tab 0 ratings
1 star 2 stars 3 stars 4 stars 5 stars
comments

Bones Of Birds Tab

   
BONES OF BIRDS
From Soundgarden's brand new album,
"King Animal"

Tabbed by BUSA


INTRO:

E|-----------------------------|----------------------------|
B|-----------------------------|----------------------------|
G|-----------------------------|----------------------------|
D|------4-----0h4h6-6^7--6--4--|------4-----0h4h6-6^7--6----|
A|-----------------------------|----------------------------|
D|-0--0------------------------|-0--0-----------------------|

VERSE:

|-------------------------|-----------------------|
|-------------------------|-----------------------|
|-------------------------|-----------------------|
|------4----0h4h6-6^7--6--|------4----0h4h6-6^7---|
|-------------------------|-----------------------|
|-0--0--------------------|-4---------------------|

PRE-CHORUS (?)

|-------------------------|----------------------------|
|-------------------------|----------------------------|
|-------------------------|----------------------------|
|-5---5---5--6--X-6---6/--|---------------6--X-6---6/--|
|-7---7---7--3--X-3---3/--|-10---10---10--6--X-6---6/--|
|-7---7---7--3--X-3---3/--|-10---10---10--6--X-6---6/--|

CHORUS:

  A5           F5        C5             Ab5
|----------------------|------------------------|
|----------------------|------------------------|
|---------<7>----------|-----------------<7>----|
|-----<7>------<10>*---|------------------------|
|---<7>----------------|--<10>*-----------------|
|-<7>------------------|------------------------|

* Without distortion and effects, those harmonics will barely be audible.

BRIDGE:
[ Tab from: http://www.guitartabs.cc/tabs/s/soundgarden/bones_of_birds_tab_ver_2.html ]
|-----------------------------|----------------------------|
|-----------------------------|----------------------------|
|-----------------------------|----------------------------|
|------4-----0h4h6-6^7--6--4--|------4-----0h4h6-6^7--6----|
|-----------------------------|----------------------------|
|-0--0------------------------|-0--0-----------------------|

||-------10---9-9\7-7\5-5/--|-9\----------------------------||
||--------------------------|------7------------------------||
||o-------7----6-6\4-4\2-2/-|-6\---------------------------o||
||o-------------------------|------4-------0h4h6-6^7--6----o||
||--------------------------|-------------------------------||
||--0-----------------------|-------------------------------||

SECOND PRE-CHORUS (the other guitar):

|----------------------------|----------------------------------|
|----------------------------|----------------------------------|
|----------------------------|----------------------------------|
|-------5^6-----------6^7----|---------8^10------------10^11----|
|-0---0------0---------------|----------------------------------|
|---------------3---3------3-|-10---10-------10--6---6--------6-|

Not quite sure about the bends.

DIFFERENT PART AFTER SECOND CHORUS (I don't now what to call it):

|-------------------|
|-------------------|
|-2---2/---5--5--5--|
|-3---3/---6--6--6--|
|-------------------|
|-3---3/---6--6--6--|

END (with bass):

|--------------------|--------------------|
|--------------------|--------------------|
|--------------------|--------------------|
|--------------------|--------------------|
|--------------------|--------------------|
|-0--------0-2-0-4-2-|-0----------4-2-0-2-|


ORDER OF PARTS:

INTRO x2
VERSE x4
PRE-CHORUS x2
CHORUS x2
BRIDGE x1
VERSE x4
SECOND PRE-CHORUS x2
CHORUS x2
DIFFERENT PART x4
END x2
PRE-CHORUS x2
CHORUS x4
DIFFERENT PART x4
END x3 


I didn't bother to notate the rhythm. Then again, it's Soundgarden; notating the rhythm 
would not be an easy task. Play along and you'll find out.
Comments