Soundgarden - Blow Up The Outside World Chords & Tabs

 

Blow Up The Outside World Chords & Tabs

Soundgarden Chords & Tabs

Version: 2 Type: Bass Tab 0 ratings
1 star 2 stars 3 stars 4 stars 5 stars
comments

Blow Up The Outside World Bass Tab

Artist: Soundgarden
Song: Blow Up The Outside World
Tabbed by jjhand
Tuning: Standard Bass

Enjoy and please rate my tabs so others will check them out too!

Intro 
G|------------------|------------------|
D|------------------|------------------|
A|----------3-----0-|----------3-----2-|
E|-0----------------|-0----------------| play 2x

Verse Riff:
G|------------------------|
D|------------------------|
A|---------7\3----3/5-5/7-|
E|-0----------------------| play 2x

G|-------------|--------------|------------|--------------|
D|-------------|--------------|------------|--------------|
A|-------------|-5------------|------------|--------2-----|
E|-0---------0-|-------3------|-2----------|-(2)-------3--|

G|-------------|--------------|---------------|
D|-------------|--------------|---------------|
A|-3---3-3---3-|-0------------|---------------|
E|-------------|--------------|-2----2-2---2--|

Ending 1
G|---------------|------------------|
D|---------------|------------------|
A|-2-0-0---------|------------------|
E|---------2-2-2-|-(2)--------------|


Play Verse Riff again, but use Ending 2:
G|---------------|-----------------|
D|---------------|-----------------|
A|-0-------------|-0-0-0---0-0-0---|
E|---------------|-----------------|

Chorus
G|-----------------|-----------------|---------------|---------------|
D|-----------------|-----------------|---------------|---------------|
A|-3-3-3---3-3-3---|-2-2-2---2-2-2---|-------4-------|-0-------------|
E|-----------------|-----------------|-3-------------|---------------|

G|-----------------|-----------------|------------------------|
D|-----------------|-----------------|------------------------|
A|-3-3-3---3-3-3---|-----------------|-------7-5-3----3/5-5/7-|
E|-----------------|-2-2-2---2-2-2---|-0----------------------|
[ Tab from: http://www.guitartabs.cc/tabs/s/soundgarden/blow_up_the_outside_world_btab_ver_2.html ]
G|--------------------------|--------------------------|--------------|
D|--------------------------|--------------------------|--------------|
A|-------7--5--3----3/5-5/7-|-------7--5--3----3-2-0---|-0------5-----|
E|-0------------------------|-0----------------------3-|---0----------|


Play Verse Again once, and use Ending 2 (notice that the rest is shorter before chorus)

Play Chorus again


Guitar Solo 
G|------------------------|
D|------------------------|
A|---------7\3----3/5-5/7-|
E|-0----------------------| play 7x

Bridge
G|------------------------|----------|----------------------|
D|------------------------|----------|----------------------|
A|-------------0-0-3--0-0-|-5--------|-(5)-------0-0-3--0-0-|
E|-0----------------------|----------|----------------------|

G|----------|----------------------|
D|----------|----------------------|
A|-5--------|-(5)-------0-0-5--0-0-|
E|----------|----------------------|

play 3x
G|-----------------|---------------------|
D|-----------------|---------------------|
A|-----------------|-3--------0-0-5--0-0-|
E|-0-------0-0-----|---------------------|


Final Chorus - play 10x
G|--------------------------|
D|--------------------------|
A|-------7--5--3----3/5-5/7-|
E|-0------------------------|


Ending
G|-------------|-------------|-------------|-------------|
D|-------------|-------------|-------------|-------------|
A|-------------|-------------|-------------|-------------|
E|-0-----------|-0-----------|-0-----------|-0-----5--4--|

G|-------------|-------------|-------------|-------------|-------|
D|-------------|-------------|-------------|-------------|-------|
A|-------------|-------------|-------------|-------------|-------|
E|-0------5--4-|-0------5--4-|-0------5--4-|-0-----5--4--|-0-----|


Key:
()      Hold note
/ or \  Slide

Comments