Soulwax - Much Against Everyones Advice Chords & Tabs

 

Much Against Everyones Advice Chords & Tabs

Soulwax Chords & Tabs

Version: 2 Type: Bass Tab 0 ratings
1 star 2 stars 3 stars 4 stars 5 stars
comments

Much Against Everyones Advice Bass Tab

Artist - Soulwax
Track - Much against everyones advice
Tabber - Sarah 

Hey everyone! I know all my tabs seem wrong, that makes em more 
loveable! There is an easy to grasp rythym in this song,
so I won't write how many of each note. Instead, I'll write <..>.
mmkay?

part 1
g-7..-------7/6/5..----------7..
d------------------3/4/5..6..---
a-------------------------------
e-------------------------------
[ Tab from: http://www.guitartabs.cc/tabs/s/soulwax/much_against_everyones_advice_btab_ver_2.html ]
part 2 (for...you)
g-7-5--------7..5---------
d-----4-5-8-7------4-5-8-7
a-------------------------
e-------------------------

part 3 (prechorus)
g-7-6-4-2-----------7-6-4-2--------
d---------5-4-2-4-5----------5-4-2..4-5...
a----------------------------------
e----------------------------------

part 4 (chorus)
g-7..----------5..6..-7..----------5..6../7..
d----6-7..8..------------6-7..8..----------
a--------------------------------------------
e--------------------------------------------

I'm pretty sure this is right. But  if wrong, mail me.
And of course submit the correct tab to the archive!
Comments