Soulwax - Conversation Intercom Chords & Tabs

 

Conversation Intercom Chords & Tabs

Soulwax Chords & Tabs

Version: 2 Type: Bass Tab 0 ratings
1 star 2 stars 3 stars 4 stars 5 stars
comments

Conversation Intercom Bass Tab

Bass Tab

Artist: Soulwax
Song: Conversation Intercom
Album: Much Against Everyone's Advice 
Transcribed By Jonathan Hamilton
                                

 Verse:                                        
G-----------------------------------------------------------------------
D-----------------------------------------------------------------------
A-----------------------------------------------------------------------
E---7--7--7--7--7--7--7--7--7--7--7--7--7--7--7--7--7--7--7--7--7--7----
    Time....                                                  

                                                                        
G-----------------------------------------------------------------------
D-----------------------------------------------------------------------
A-----------------------------------------------------------------------
E---7--7--7--7--7--7--7--7--7--7--3--3--3--3--3--3--3--3--3--3--3--3----
             translation seems to sabotage.....                                                    

                                                                        
G-----------------------------------------------------------------------
D-----------------------------------------------------------------------
A-----------------------------------------------------------------------
E---3--3--3--3--2--2--2--2--2--2--2--2--2--2--2--2--2--2--2--2--0--0----
         the word...                                   you know what....                     
[ Tab from: http://www.guitartabs.cc/tabs/s/soulwax/conversation_intercom_btab_ver_2.html ]
                                                   Chorus:
G------------------------------------------------I----------------------
D------------------------------------------------I----------------------
A------------------------------------------------I----------------------
E---0--0--0--0--0--0--5--5--5--5--6--6--6--6-----I-----7--7--7--7--7----
                      what...     heard...             Conver-                              

                                                                        
G-----------------------------------------------------------------------
D-----------------------------------------------------------------------
A-----------------------------------------------------------------------
E---7--7--7--11--11--11--11--11--11--11--11--0--0--0--0--0--0--0--0-----
             sation                          intercom...                                

                                'Do you recieve?' bit:                                        
G-----------------------------I-----------------------------------------
D-----------------------------I-----------------------------------------
A-----------------------------I-----------------------------------------
E---9--10--3--2--0---0--5--6--I----7--7--7--7--7--7--9--9--9--9--9------
           hear....                                                           

                                                                        
G-----------------------------------------------------------------------
D-----------------------------------------------------------------------
A-----------------------------------------------------------------------
E---9--10--10--10--10--2--2--2--2--2--2--3--3--3--3--3--3--5--5--5------
                                                                        

                                                                        
G-------
D-------
A-------
E---5---                                                                        

That's it. Only the E string needed. For the 'Do you recieve?' bit, try and slide from fret
to fret.


I know this could be clearer but if you have any problems, e-mail me at

h4m1lt0nj@aol.com
Comments