Soulfly - Zumbi Chords & Tabs

 

Zumbi Chords & Tabs

Soulfly Chords & Tabs

Version: 1 Type: Tab 0 ratings
1 star 2 stars 3 stars 4 stars 5 stars
comments

Zumbi Tab

   
This is the Solo in the end of the track...

Tuning B F# B E G# C#
[ Tab from: http://www.guitartabs.cc/tabs/s/soulfly/zumbi_tab.html ]
-----------------------------------------------------------------------
-----------------------------------------------------------------------
-----------------------------------------------------------------------
-----------------------------------------------------------------------
-------12-12--13-13-------12-12-13-13------12-12-13-13-----------------
--12-12--------------12-12------------10-10----------------------------


-----------------------------------------------------------------------
-----------------------------------------------------------------------
-----------------------------------------------------------------------
------5-5-5-5-----5-5-5-5-----4-4-5-5----------------------------------
--5-5---------5-5---------4-4----------4-4-4-6-6-6-8-8-8-10-10-10------

...Dont blame me if thre is a mistace becouse this is my first tab,
and i dont have my guitar along!
Comments