Soulfly - Under The Sun Chords & Tabs

 

Under The Sun Chords & Tabs

Soulfly Chords & Tabs

Version: 1 Type: Tab 0 ratings
1 star 2 stars 3 stars 4 stars 5 stars
comments

Under The Sun Tab

   
Band- Soulfly
Song- Under The Sun

Tune B F# B E G# C# 



Riff 1:
|-------------------|
|-------------------|
|-------------------| (x4)
|-------------------|
|-0--7-6--10-9--8-7-|
|-0--7-6--10-9--8-7-|



Riff 2:
|-----------------------------------------|
|-----------------------------------------|
|-----------------------------------------|
|-----------------------------------------|
|-----------------------------------------|
|0-0-0-2-0-2-3-2-0-2-0-0-0-2-0-2-3-2-0-2-0|



Riff 3:
|---------------------------------------|
|---------------------------------------|
|---------------------------------------|
|---------------------------------------|   (x20)
|0-0-2-0-2-3-2-0-2-0-0-0-2-0-2-3-2-0-2-0|
|0-0-2-0-2-3-2-0-2-0-0-0-2-0-2-3-2-0-2-0|


[ Tab from: http://www.guitartabs.cc/tabs/s/soulfly/under_the_sun_tab.html ]
Riff 4:
|------------------------------------------------------|
|----------------------------5---5-6-5-6-8-6-8-10------|
|------------------5---7-5-7---7-----------------------|
|------5---5-5-7-8---8---------------------------------|
|5-7-8---8---------------------------------------------|
|------------------------------------------------------|


Riff 3: 



Riff 4:



Riff 5:
|-------------------|
|-------------------|
|-------------------|
|-------------------|
|-------------------|
|-5555-33---5555-33-|



Riff 6:
|-------------------|
|-------------------|
|-------------------|   (x10)
|-------------------|
|-5555-33---5555-33-|
|-5555-33---5555-33-|



Riff 7:
|-------------------|
|-------------------|
|-------------------|   (x10)
|-------------------|
|-6666-44---6666-44-|
|-6666-44---6666-44-|



Riff 8:
|-------------------|
|-------------------|
|-------------------|   (x4)
|-------------------|
|-7777-55---7777-55-|
|-7777-55---7777-55-|


Riff 9:
|-------------------|
|-------------------|
|-------------------|   (x8)
|-------------------|
|-8888-66---8888-66-|
|-8888-66---8888-66-|

At the same time there's a solo that goes like this

|----------------|         
|----------------|
|-----3-6-8-8-6--|
|-3-6------------| (x4)  
|----------------|
|----------------|


|-----------|
|-6-6-9-9-9-|
|-----------|
|-----------|  (x4)
|-----------|
|-----------|



Then back to Riff 3
Comments