Soulfly - Umbabarauma Chords & Tabs

 

Umbabarauma Chords & Tabs

Soulfly Chords & Tabs

Version: 1 Type: Tab 0 ratings
1 star 2 stars 3 stars 4 stars 5 stars
comments

Umbabarauma Tab

Soulfly: umbabarumba off of Soulfly tabbed by PanterA05DLA

[ Tab from: http://www.guitartabs.cc/tabs/s/soulfly/umbabarauma_tab.html ]
Main Riff 
 
B|----------------------| 
F|----------------------| 
D|----------------------| 
A|----------------------| 
E|-2-2-5-2-2-2-7/8\7\5--| 
B|-0-0-3-0-0-0-5/6\5\3--| 
   * *   * * * 
 
Verse (w/ wah) 
 
B|------| 
F|------| 
D|-9----| 
A|-7----| 
E|------| 
B|------| 
 
Solo 
 
B|------------------------------------------------------------------------------------| 
F|------------------------------------------------------------------------------------| 
D|------------------------------------------0-2-4-4/7--4-3-2-0----------12-12-12b-----| 
A|-2-2-2-2-2-2-2-2--2-2-2-0--------------2-------------------------14b--------14b-----| 
E|---------------------------2--2-2-2-2-----------------------------------------------| 
B|------------------------------------------------------------------------------------| 
 
B|-----------------------------10--10-10-10-12-----/12-12----/15-12-12p15---15p12h14--| 
F|-----------------------------10--10-10-10-12---0------------------------------------| 
D|-12--12-12--------------------------------------------------------------------------| 
A|-12--12-12--------------------------------------------------------------------------| 
E|------------14/19\14trem.-----------------------------------------------------------| 
B|------------------------------------------------------------------------------------| 
 
B|--------12--15-12-------------12-15--12------12-15-------12-b--12-12-12-12-12-------| 
F|-12-15------------12-12-12-15-----------15-----------12--15-b--15-15-15-15-15-------| 
D|------------------------------------------------------------------------------------| 
A|------------------------------------------------------------------------------------| 
E|------------------------------------------------------------------------------------| 
B|------------------------------------------------------------------------------------| 
 
B|-12-----12-12------12-12----------12---12------0------------------------------------| 
F|-15b----------15b----------15b------15-----------0----------------------------------| 
D|------------------------------------------------------------------------------------| 
A|------------------------------------------------------------------------------------| 
E|-------------------------------------------------------x/---------------------------| 
B|-------------------------------------------------------x/---------------------------| 
									   ** 
 
** = slowly lower pitch of 6th string with tuning peg, w/ feedback

Comments