Soulfly - Tree Of Pain Chords & Tabs

 

Tree Of Pain Chords & Tabs

Soulfly Chords & Tabs

Version: 1 Type: Tab 0 ratings
1 star 2 stars 3 stars 4 stars 5 stars
comments

Tree Of Pain Tab

   
---------------------------------------
ARTIST: SOULFLY
SONG: "Tree Of Pain"
ALBUM: "3"
---------------------------------------
TABBED BY: WREATH666 
TABBING DATE: 11th of July 2002
---------------------------------------
TUNING: drop D then lower 3 STEPS DOWN = B F# B E G# C#
[ Tab from: http://www.guitartabs.cc/tabs/s/soulfly/tree_of_pain_tab.html ]
(00:00)
C#|----------------------------|---------------------------------|
G#|----------------------------|------------0--------------0-----|
E |----0----0---0----0---0----0|--------0-----0--------0-----0---|
B |---0---0----0---0----0---0--|---------------------------------|
F#|--7---7----7---7----7---7---|-----10---10--------10---10------|
B |----------------------------|---10-------------10-------------|

(00:35 - 00:42)
C#|------------------------------------|
G#|------------0---------------0-------|
E |--------0------0--------0------0----|
B |---------------10--------------10---|
F#|-----10---10--------10---10---------|
B |---10-------------10----------------|

keep playing that shit till the kickass moment..

"KICK-ASS"
(02:21)
C#|-----------------------------------------|
G#|-----------------------------------------|
E |-----------------------------------------|
B |-4-4-4-4--7-7-7-7--8-8-8-8--11-11-11-11--|   
Comments