Soulfly - Smoke On The Water Chords & Tabs

 

Smoke On The Water Chords & Tabs

Soulfly Chords & Tabs

Version: 3 Type: Tab 0 ratings
1 star 2 stars 3 stars 4 stars 5 stars
comments

Smoke On The Water Tab

   
SOULFLY - SMOKE ON THE WATER
USER: KBZON
TUNNING: DROP D

INTRO

E|-------------------------|
B|-------------------------|
G|-------------------------| (MAIN RIFF)
D|-2-5-7--2-5-8-7--2-5-7-5-|
A|-2-5-7--2-5-8-7--2-5-7-5-|
D1-2-5-7--2-5-8-7--2-5-7-5-| (X5)

VERSES

E|-----------------------|
B|-----------------------|
G|-----------------------|
D|-2-2---0-2-2-X-X-X-2-2-|
A|-2-2---0-2-2-X-X-X-2-2-|
D|-2-2---0-2-2-X-X-X-2-2-| (RIFF I)
We all came out to Montreux on the Lake Geneva shoreline

E|-----------------|
B|-----------------|
G|-----------------|
D|-0-2-2-X-X-X-2-2-|
A|-0-2-2-X-X-X-2-2-|
D|-0-2-2-X-X-X-2-2-| (RIFF II)
To make records with a mobile - We didn't have much time

E|------------------------------------|    
B|------------------------------------|
G|------------------------------------|
D|--------------------0-2-2-X-X-X-2-2-|
A|-222222-------------0-2-2-X-X-X-2-2-|
D|-222222(PALM MUTED)-0-2-2-X-X-X-2-2-| (X4) (RIFF III)
Frank Zappa & the Mothers were at the best place around
But some stupid with a flare gun burned the place to the ground

END VERSES

E|--------|
B|--------|
G|-97-----|
D|-75-987-|
A|-75-987-|
D|----987-| NOT EXACTLY

CHORUS
[ Tab from: http://www.guitartabs.cc/tabs/s/soulfly/smoke_on_the_water_tab_ver_3.html ]
E|-------------------------------|
B|-------------------------------|
G|-------------------------------|
D|-777773333332-X2X2-77777333333-|
A|-777773333332-X2X2-77777333333-|
D|-777773333332-X2X2-77777333333-|
Smoke on the water - A fire in the sky
Smoke on the water

INTRO(MAIN RIFF)

VERSES(RIFF I,II,III)

They burned down the gambling house - It died with an awful sound
Funky & Claude was running in and out, pulling kids out of the ground
When it all was over, we had to find another place
Swiss time was running out - It seemed that we would lose the race

END VERSES

CHORUS

Smoke on the water - A fire in the sky
Smoke on the water

INTRO(MAIN RIFF) (X2)

SOLO(

INTRO(MAIN RIFF) (X3)

VERSES(RIFF I,II,III)

We ended up at the Grand Hotel - It was empty, cold and bare
But with the Rolling Truck Stones Thing just outside making our music there
With a few red lights an' a few old beds, we made a place to sweat
No matter what we get out of this, I know... I know we'll never forget

CHORUS

Smoke on the water - A fire in the sky
Smoke on the water

INTRO(MAIN RIFF) (X4)

E|----------|
B|----------|
G|----------|
D|-X2X2X2-7-|
A|-X2X2X2-7-|
D|-X2X2X2-7-|

SMOKEEEEEE!

END SOLO

NOTE: THAT IS EVERYTHING, IN SOME RIFF I AM NOT SAFE ASI THAT SENDS A E-MAIL
IF THERE ARE ERRORS AND ONLY LACK GUITAR SOLO'S
Comments