Soulfly - Seek N Strike Chords & Tabs

 

Seek N Strike Chords & Tabs

Soulfly Chords & Tabs

Version: 9 Type: Tab 0 ratings
1 star 2 stars 3 stars 4 stars 5 stars
comments

Seek N Strike Tab

-1.5 steps

PM - palm muting   /\ - slide up/down
 ~ - vibrato        h - hammer on

Intro (guitar1)
d|----------------------|
A|----------------------|
f|----------------------| 4x
c|----------------------|
g|----------------------|
d|-1-0-1-0--0-3-3-0-1-0-|

Verse (guitar1&2)
|------------------------|
|------------------------|
|------------------------| 8x
|------------------------|
|------------------------|
|-0-1-0-1-0--3-3-3-0-1-0-|

Bridge1 (guitar1&2)
|---------------------------|
|---------------------------|
|-------------8-8---11-11---|
|-3-3---5-5---8-8---11-11---| 4x
|-1-1---3-3---6-6----9--9---|
|---------------------------|


Verse (guitar1&2)
|------------------------|
|------------------------|
|------------------------| 8x
|------------------------|
|------------------------|
|-0-1-0-1-0--3-3-3-0-1-0-|

Bridge1 (guitar1&2)
|---------------------------|
|---------------------------|
|-------------8-8---11-11---|
|-3-3---5-5---8-8---11-11---| 4x
|-1-1---3-3---6-6----9--9---|
|---------------------------|

Chorus (guitar1&2)
|----------------------|   |-----------------------|
|----------------------|   |-----------------------|
|----------------------|3x |-----------------------| 1x
|----------------------|   |-----------------------|
|---8---8---8-11-11-11-|   |---8---8---8---8-11-11-|
|-0-6-0-6-0-6--9--9--9-|   |-0-6-0-6-0-6-0-6--9--9-|

|----------------------|   |-----------------------|
|----------------------|   |-----------------------|
|----------------------|3x |-----------------------| 1x
|----------------------|   |-----------------------|
|---8---8---8-11-11-11-|   |---8---8---8---8-11-11-|
|-0-6-0-6-0-6--9--9--9-|   |-0-6-0-6-0-6-0-6--9--9-|

Interlude (guitar1)
|----------------------|
|----------------------|
|----------------------| 4x
|----------------------|
|----------------------|
|-1-0-1-0--0-3-3-0-1-0-|

Verse (guitar1&2)
|------------------------|
|------------------------|
|------------------------| 8x
|------------------------|
|------------------------|
|-0-1-0-1-0--3-3-3-0-1-0-|

Bridge1 (guitar1&2)
|---------------------------|
|---------------------------|
|-------------8-8---11-11---|
|-3-3---5-5---8-8---11-11---| 4x
|-1-1---3-3---6-6----9--9---|
|---------------------------|
[ Tab from: http://www.guitartabs.cc/tabs/s/soulfly/seek_n_strike_tab_ver_9.html ]
Verse (guitar1&2)
|------------------------|
|------------------------|
|------------------------| 8x
|------------------------|
|------------------------|
|-0-1-0-1-0--3-3-3-0-1-0-|

Bridge1 (guitar1)
|---------------------------|
|---------------------------|
|---------------------------|
|-3-3---6-6---10-10---13-13-| 4x
|-1-1---4-4----8--8---11-11-|
|---------------------------|

Chorus (guitar1&2)
|----------------------|   |-----------------------|
|----------------------|   |-----------------------|
|----------------------|3x |-----------------------| 1x
|----------------------|   |-----------------------|
|---8---8---8-11-11-11-|   |---8---8---8---8-11-11-|
|-0-6-0-6-0-6--9--9--9-|   |-0-6-0-6-0-6-0-6--9--9-|

|----------------------|   |-----------------------|
|----------------------|   |-----------------------|
|----------------------|3x |-----------------------| 1x
|----------------------|   |-----------------------|
|---8---8---8-11-11-11-|   |---8---8---8---8-11-11-|
|-0-6-0-6-0-6--9--9--9-|   |-0-6-0-6-0-6-0-6--9--9-|


Bridge2 (guitar1)
|-----------------|
|-----------------|
|-----------------| 4x
|-----------------|
|-2-2-2-2-2-2-2-2-|
|-0-0-0-0-0-0-0-0-|
 PM--------------

Bridge3 (guitar2)
|-------------------------|
|-------------------------|
|-------------------------| 4x
|-------------------------|
|-------------------------|
|-0--0-3-0-0--0--0-3-0-0--|


Solo (guitar1)
|--------------------------------------------------------------|
|-101010101010-8888-777777-------------------------------------|
|--------------------------888888-999-121212-151515-1414141414-|
|--------------------------------------------------------------|
|--------------------------------------------------------------|
|--------------------------------------------------------------|

|------------151515-141414-1717171717----------------------------|
|-1515151515--------------------------15151515-1717h18--16~~~~~~-|
|----------------------------------------------------------------|
|----------------------------------------------------------------|
|----------------------------------------------------------------|
|----------------------------------------------------------------|

Bridge3 under solo (guitar2)
|-------------------------|
|-------------------------|
|-------------------------| 4x
|-------------------------|
|-------------------------|
|-0--0-3-0-0--0--0-3-0-0--|


Outro/Bridge3 (guitar2)
|-------------------------|
|-------------------------|
|-------------------------| 4x
|-------------------------|
|-------------------------|
|-0--0-3-0-0--0--0-3-0-0--|
Comments