Soulfly - Seek N Strike Chords & Tabs

 

Seek N Strike Chords & Tabs

Soulfly Chords & Tabs

Version: 4 Type: Tab 0 ratings
1 star 2 stars 3 stars 4 stars 5 stars
comments

Seek N Strike Tab

   
Hi! I guess this is the first tab of '3' the new Soulfly album,
so here it goes, the tuning is B ( 2 1/2 steps down ), so from low to high
B E A D F# B

Intro ( Max ) / verse ( Max & Mikey ):
E---------------------------
B---------------------------
G---------------------------
D---------------------------
A---------------------------
E-0-1-0-1-0--0-3-3-0-1-0---- repeat

Break in verse ( Max ) 4 times
E-----------------------------------
B-----------------------------------
G-----------------------------------
D-3-3--5-5--8-8--11-11--------------
A-1-1--3-3--6-6--9--9---------------
E-----------------------------------
[ Tab from: http://www.guitartabs.cc/tabs/s/soulfly/seek_n_strike_tab_ver_4.html ]
Chorus
E-----------------------------
B-----------------------------
G-----------------------------
D-----------------------------
A---------------11-11-11------
E--6-0-6-0-6-0--9--9--9-------

Bridge ( palm muted )
E-----------------------
B-----------------------
G-----------------------
D-----------------------
A-2-2-2-2-2-2-2-2-2-----
E-0-0-0-0-0-0-0-0-0-----

Outro ( Max )
E----------------
B----------------
G----------------
D----------------
A----------------
E--0-0-3-0-0----- repeat till end

I couldn't figure out the solo, or the high notes Mikey plays in the break, sorry
But this should be right, e-mail me for comments SOULFLY TRIBE!
arno.bogaerts@pandora.be





Comments