Soulfly - Seek N Strike Chords & Tabs

 

Seek N Strike Chords & Tabs

Soulfly Chords & Tabs

Version: 2 Type: Tab 0 ratings
1 star 2 stars 3 stars 4 stars 5 stars
comments

Seek N Strike Tab

   
Song:Seek n' Strike
Artist:Soulfly
Album: "3"
Tabber: Rupert Cameron
Tuning: Drop D down 1.5 steps (B F# B E G# C#) Low to High


Intro and Main Riff
|---------------------------------------------|
|---------------------------------------------|
|---------------------------------------------|
|---------------------------------------------|
|---------------------------------------------|
|-2-1-2-1-1-4-4-1-2-1-1-2-1-2-1-1-4-4-1-2-1-1-|

Pre-Chorus
|------------------------------------|
|------------------------------------|
|------------------------------------| (x4)
|-3-3-3-3-6-6-6-6-7-7-7-7-10-10-10-10|
|-3-3-3-3-6-6-6-6-7-7-7-7-10-10-10-10|
|-3-3-3-3-6-6-6-6-7-7-7-7-10-10-10-10|


Pre-Chorus Guitar 2
(not the exact amount, but you get the idea)
|----------------------------------------------------------|
|----------------------------------------------------------| 
|-13-13-13-13-13-13-13-13-13-13-13-13-13-13-13-13-13-13-13-|
|----------------------------------------------------------|
|----------------------------------------------------------| 
|----------------------------------------------------------| 
[ Tab from: http://www.guitartabs.cc/tabs/s/soulfly/seek_n_strike_tab_ver_2.html ]
Chorus
|-----------------------------------------|
|-----------------------------------------|
|-----------------------------------------| (x8)
|----------------------9/10-10-10---------|
|----------------------9/10-10-10---------|
|0-0-6-0-6-0-6-0-6-0-6/9/10-10-10---------|

Bridge
|---------------------------------------|
|---------------------------------------|
|---------------------------------------|
|-x-x-x-x-x-x-x-x-x-x-x-x-x-x-x-x-x-x-x-|
|-x-x-x-x-x-x-x-x-x-x-x-x-x-x-x-x-x-x-x-|
|-x-x-x-x-x-x-x-x-x-x-x-x-x-x-x-x-x-x-x-|

Rhythm for Solo
|-----------|
|-----------|
|-----------| 
|-0-0-3p2-0-|
|-0-0-3p2-0-|
|-0-0-3p2-0-|

Solo
play each note more than stated, if you know the song 
you'll know what to do
Tremolo...................................
|------------------------15-14-17--------------------|
|----------------------15---------15-16-18-18*AHb-/3-|
|-14-12-11-7-8-11-15-14------------------------------|
|----------------------------------------------------|
|----------------------------------------------------|
|----------------------------------------------------|
Key
*AH Artificial Harmonic
B Bend
/ Slide up or down to the number right to it
x Mute

E-mail me with any complaints or anything else at rjcdragon@hotmail.com	
Comments