Soulfly - Quilombo Chords & Tabs

 

Quilombo Chords & Tabs

Soulfly Chords & Tabs

Version: 1 Type: Tab 0 ratings
1 star 2 stars 3 stars 4 stars 5 stars
comments

Quilombo Tab

   
SONG: Quilombo
         BAND: Soulfly
        ALBUM: Soulfly
   TRANSCRIBED BY: Nick Biondo (MetlSlp@aol.com)
         DATE: Unknown

 
------------------------------------------------------------------------------



    TUNING: tune as follows (B-E-A-D-F-B)


 
     INTRO: (not too sure on this part)
            
     Play with Gtr. 2 on Verse

    B|---------------------------|
    F|---------------------------|
    D|---------------------------|
    A|---------------------------|
    E|---------------------------|
    B|-12-12-12-12-12-12-0-------|
[ Tab from: http://www.guitartabs.cc/tabs/s/soulfly/quilombo_tab.html ]
     INTRO/VERSE: (Gtr. 2)

    B|----------------|
    F|----------------|
    D|----------------|
    A|----------------|
    E|-2-2--2-2-2-----|
    B|-0-0--0-0-0-----|

     CHORUS:

    B|--------------------------------------|
    F|------3-------3-----------------------|
    D|------3-------3-----------------------|
    A|--------------------------------------|
    E|-2-2------2-2-----2-2-5-2-2-5---------|
    B|-0-0------0-0-----0-0-3-0-0-3---------|

     OUTRO:

    B|---------------|
    F|---------------|
    D|---------------|
    A|---------------|
    E|-2-2-5-6-8-9---|
    B|-0-0-3-4-6-7---|
Comments