Soulfly - Prophet Chords & Tabs

 

Prophet Chords & Tabs

Soulfly Chords & Tabs

Version: 1 Type: Tab 0 ratings
1 star 2 stars 3 stars 4 stars 5 stars
comments

Prophet Tab

   
Song: "The Prophet"
Artist: Soulfly
Album: Primitive
Transcribed By: Bryan Bramlett (bryanmb87@aol.com)

Tuning: Drop D, Down 2 1/2 Steps (A,E,A,D,G,B)

INTRO:
|---------------------------------|
|---------------------------------|
|---------------------------------|
|---------------------------------|
|---------------------------------|
|-4-0-0-0-1-0-0-0-4-0-0-0-6-0-0-0-|

MAIN RIFF:
|---------------------------------|
|---------------------------------|
|---------------------------------|
|-4-0-0-0-1-0-0-0-4-0-0-0-6-0-0-0-|
|-4-0-0-0-1-0-0-0-4-0-0-0-6-0-0-0-|
|-4-0-0-0-1-0-0-0-4-0-0-0-6-0-0-0-|

VERSE: (w/ effect)
|-----------------------------------|
|-----------------------------------|
|-7-7-7-7-7-7-7-7-7-7-7-7-8-8-10-10-|
|-X-X-X-X-X-X-X-X-X-X-X-X-X-X--X--X-|
|-5-5-5-5-5-5-5-5-5-5-5-5-6-6--8--8-|
|-----------------------------------|
[ Tab from: http://www.guitartabs.cc/tabs/s/soulfly/prophet_tab.html ]
BRIDGE:
|--------------|
|--------------|
|-7\--7\-------|
|-X---X--XX1-2-|
|-5\--5\-XX1-2-|
|--------XX1-2-|

CHORUS:
|----------------|
|----------------|
|-6-676-67-11-10-|
|-6-676-67-11-10-|
|-4-454-45--9--8-|
|----------------|

INTERLUDE:
|------------------------------------------|
|------------------------------------------|
|------------------------------------------|
|-6666666677777777999999991010101010101010-|
|-444444445555555577777777-8-8-8-8-8-8-8-8-|
|------------------------------------------|

|------------------------------------------------------------------|
|------------------------------------------------------------------|
|------------------------------------------------------------------|
|-1313131313131313131313131313131313131313131313131313131313131313-|
|-1111111111111111111111111111111111111111111111111111111111111111-|
|------------------------------------------------------------------|

INTERLUDE 2:
|---------------|
|---------------|
|---------------|
|-0-00-1-0-00-6-|
|-0-00-1-0-00-6-|
|-0-00-1-0-00-6-|

Comments