Soulfly - Prejudice Chords & Tabs

 

Prejudice Chords & Tabs

Soulfly Chords & Tabs

Version: 1 Type: Tab 0 ratings
1 star 2 stars 3 stars 4 stars 5 stars
comments

Prejudice Tab

   
SONG: Prejudice
         BAND: Soulfly
        ALBUM: Soulfly
   TRANSCRIBED BY: Nick Biondo (MetlSlp@aol.com)
         DATE: Unknown

 
------------------------------------------------

    TUNING: tune as follows (B-E-A-D-F-B)


     MAIN RIFF:
[ Tab from: http://www.guitartabs.cc/tabs/s/soulfly/prejudice_tab.html ]
    B|--------------------------0--|
    F|--------------------------0--|
    D|--------------------------0--|
    A|-----------------------------|
    E|-4h5-0--4h5-0--4h5-0-4h5-----|
    B|-2h3-0--2h3-0--2h3-0-2h3-----|

     RIFF 1: ("Prejudice!")

    B|-------------------|
    F|-------------------|
    D|-------------------|
    A|-------------------|
    E|-2-2--6--2-5-6-----|
    B|-0-0--4--0-3-4-----|

     BRIDGE:

    B|---------|
    F|---------|
    D|---------|
    A|---------|
    E|---4-----|
    B|-3---2---|

    B|---------|
    F|---------|
    D|---------|
    A|---------|
    E|-4-3-3---|
    B|-2-1-1---|


Comments