Soulfly - Possibility Of Life Destruction Chords & Tabs

 

Possibility Of Life Destruction Chords & Tabs

Soulfly Chords & Tabs

Version: 1 Type: Tab 0 ratings
1 star 2 stars 3 stars 4 stars 5 stars
comments

Possibility Of Life Destruction Tab

   
Artist: SoulFly
Song: Possibility of life Destruction
Album: SoulFly Re-Release
Tabber: Buddy Hoover

This is another rare song. It's on the self-titled soulfly RE-RELEASE.
Buy the CD off ebay or just get the song off napster if your not fortunate
enough to be able to find this cd...
-Buddy-

 Tune down to B (B E A D F# B) 

  ----------------------------------------------------------------------------


 Intro (noise "lotsa noise!") 

 Verse 
[ Tab from: http://www.guitartabs.cc/tabs/s/soulfly/possibility_of_life_destruction_tab.html ]
 B|----------------------| 
 F|----------------------| 
 D|----------------------| 
 A|-------5-5/8-8-8-8----| 
 E|-7-7---3-3/6-6-6-6----| 
 B|-5-5------------------| 

 Chorus 

 B|-----------------------| 
 F|-----------------------| 
 D|-----------------------| 
 A|-10-10-10-10-10-10-10--| 
 E|-8--8--8--8--8--8--8---| 
 B|-----------------------| 

 Solo 

 B|-21-trem.--22-21-22-trem.-------| 
 F|--------------------------------| 
 D|--------------------------------| 
 A|--------------------------------| 
 E|--------------------------------| 
 B|--------------------------------| 

 ----------------------------------------------------------------------------


Comments