Soulfly - No Chords & Tabs

 

No Chords & Tabs

Soulfly Chords & Tabs

Version: 1 Type: Tab 0 ratings
1 star 2 stars 3 stars 4 stars 5 stars
comments

No Tab

   
TUNING: tune as follows (A-E-A-D-F-B)



     MAIN RIFF:

    B|-----------------|
    F|-----------------|
    D|-----------------|
    A|-----------------|
    E|-1-0-1-0/4-4-4-0-|
    A|-1-0-1-0/4-4-4-0-|
   
     FILL 1:
[ Tab from: http://www.guitartabs.cc/tabs/s/soulfly/no_tab.html ]
    B|------17-17-17-17------17-17-17b-17----|
    F|---------------------------------------|
    D|---------------------------------------|
    A|---------------------------------------|
    E|---------------------------------------|
    A|-0-0---------------0-0-----------------|

     BREAK:

    B|----------------------------------------|
    F|----------------------------------------|
    D|----------------------------------------|
    A|----------------------------------------|
    E|----------------------------------------|
    B|-0-0--3h4-4--3h4-4--3h4-4--4-3-4-3------|

     FILL 2: (the " N-O " part)

    B|-----------------------------|
    F|-----------------------------|
    D|-----------------------------|
    A|-----------------------------|
    E|------3-4-4--3-4-4--3-4-4----|
    B|-0-0--3-4-4--3-4-4--3-4-4----|
Comments