Soulfly - Moses Chords & Tabs

 

Moses Chords & Tabs

Soulfly Chords & Tabs

Version: 1 Type: Bass Tab 0 ratings
1 star 2 stars 3 stars 4 stars 5 stars
comments

Moses Bass Tab

Band- Soulfly
Song- Moses

Main Reggae Riff x4
G|--------------------------------------|
D|-----777------------------777---------|
A|----------5--7------------------------|
D|--7-------------5------7-------55555--|


Hard Riff 1 x1 “Father of Creation...”
G|----------------------------------------|
D|----------------------------------------|
A|-------7----7-------------7----7--------|
D|--7777---77---77777--7777---77---77777--|


Main Reggae Riff x4 “What is wrong...”
G|--------------------------------------|
D|-----777------------------777---------|
A|----------5--7------------------------|
D|--7-------------5------7-------55555--|


Reggae Riff 2 “Moses, Moses, Where are you?...”
G|-------------------------------------------|
D|-------------------------------------------|
A|-------------------------------------------|
D|--7-75-7-75-7-75-7-75-7-75-7-75-7-75-7-75--|


Hard Riff 2 “Father of Creation...” x2
G|--------------------------------------|
D|--------------------------------------|
A|-------7----7----7-------7----7----7--|
D|--7777---77---77----7777---77---77----|

[ Tab from: http://www.guitartabs.cc/tabs/s/soulfly/moses_btab.html ]
Main Reggae Riff x6 “ Is Armagideon time...”
G|--------------------------------------|
D|-----777------------------777---------|
A|----------5--7------------------------|
D|--7-------------5------7-------55555--|


Reggae Riff 2 “Moses, Moses, Where are you?...”
G|-------------------------------------------|
D|-------------------------------------------|
A|-------------------------------------------|
D|--7-75-7-75-7-75-7-75-7-75-7-75-7-75-7-75--|


Hard Riff 2 “Father of Creation...” x2
G|--------------------------------------|
D|--------------------------------------|
A|-------7----7----7-------7----7----7--|
D|--7777---77---77----7777---77---77----|


Fast Riff (those are 12\'s) I’m not sure how correct this riff is, just play it (or 
similar) a bunch though and it sounds fine.
G|--------------- - - --|
D|--------------- - - --|
A|--------------- - - --|
D|--777-777-7799121212--|


Reggae Riff 2 “Moses, Moses, Where are you?...”
G|-------------------------------------------|
D|-------------------------------------------|
A|-------------------------------------------|
D|--7-75-7-75-7-75-7-75-7-75-7-75-7-75-7-75--|


Main Reggae Riff - Play a bunch of times and alternate between these two. It usually 
does each one after another but sometimes switches up and does double of one of the riffs.
G|------------------|----------------|
D|-----777----------|----777---------|
A|----------5--7----|----------------|
D|--7-------------5-|-7-------55555--|
Comments