Soulfly - Lonely Star Facing A Broken World Chords & Tabs

 

Lonely Star Facing A Broken World Chords & Tabs

Soulfly Chords & Tabs

Version: 1 Type: Tab 0 ratings
1 star 2 stars 3 stars 4 stars 5 stars
comments

Lonely Star Facing A Broken World Tab

   
Band- Soulfly
Song- Lonely Star Facing A Broken World

intro
------------------------------------------------------------------------------|
------------------------------------------------------------------------------|
------------------------------------------------------------------------------|
--------------2--7--9--7------------------------------------------------------|
-----3--7--5--------------7--7--------4--4--4---------------------------------|
------------------------------------------------------------------------------|

-----------------------------------------------------------------------------|
-----------------------------------------------------------------------------|
-----------------------------------------------------------------------------|
--------------7--7--9--7-----------------------------------------------------|
-----1--2--3--------------10--4--4--4--1--5--5-------------------------------|
-----------------------------------------------------------------------------|
Too long for me.......


-----------------------------------------------------------------------------|
-----------------------------------------------------------------------------|
-----------------------------------------------------------------------------|
-------------7--1--9--7------------------------------------------------------|
----7--5--7--------------10--7--0--7--5--0--5--------------------------------|
-----------------------------------------------------------------------------|

-----------------------------------------------------------------------------|
-----------------------------------------------------------------------------|
----------------------9--1--9------------------------------------------------|
-------------7--9--7----------9---4--9---------------------------------------|
----7--9--7------------------------------------------------------------------|
-----------------------------------------------------------------------------|


verse
(a)                            (b)
------------------------15----|-----3--------------5-------------------------|
--13--------------12----------|-----3--------------5-------------------------|
------------------------------|-----5--------------7-------------------------|
------------------------------|-----5--------------7-------------------------|
------------------------------|-----3--------------7-------------------------|
------------------------------|-----3--------------5-------------------------|
Verse form
(a) x3
(b) x1
(a) x3
(b) x3
I Want you to see me........


chorus
-----------------------------------------------------------------------------|
-----------------------------------------------------------------------------|
-----------------------------------------------------------------------------|
-------------7--4--9--7------------------------------------------------------|
----7--0--7--------------10--8--7--7--2--5--5--------------------------------|
-----------------------------------------------------------------------------|

-----------------------------------------------------------------------------|
-----------------------------------------------------------------------------|
-----------------------------------------------------------------------------|
-------------7--4--9--7------------------------------------------------------|
----7--0--7--------------10--8--7--7--2--5--5--------------------------------|
-----------------------------------------------------------------------------|
[ Tab from: http://www.guitartabs.cc/tabs/s/soulfly/lonely_star_facing_a_broken_world_tab.html ]
-----------------------------------------------------------------------------|
-----------------------------------------------------------------------------|
---------------------9--2--9--9/12--12--12--13-------------------------------|
-------------7--1--7---------------------------------------------------------|
----7--0--7------------------------------------------------------------------|
-----------------------------------------------------------------------------|
how long how long............

verse
(a)                            (b)
------------------------15----|-----3--------------5-------------------------|
--13--------------12----------|-----3--------------5-------------------------|
------------------------------|-----5--------------7-------------------------|
------------------------------|-----5--------------7-------------------------|
------------------------------|-----5--------------7-------------------------|
------------------------------|-----3--------------5-------------------------|
Verse form
(a) x3
(b) x1
(a) x3
(b) x3

Lonely star.......

chorus

-----------------------------------------------------------------------------|
-----------------------------------------------------------------------------|
-----------------------------------------------------------------------------|
-------------7--0--9--7------------------------------------------------------|
----7--0--7--------------10--7--7--7--4--5--5--------------------------------|
-----------------------------------------------------------------------------|

-----------------------------------------------------------------------------|
-----------------------------------------------------------------------------|
-----------------------------------------------------------------------------|
-------------7--0--9--7------------------------------------------------------|
----7--0--7--------------10--7--7--7--4--5--5--------------------------------|
-----------------------------------------------------------------------------|

-----------------------------------------------------------------------------|
-----------------------------------------------------------------------------|
----------------------9--9--9------------------------------------------------|
-------------7--7--7-----------9----9--9-------------------------------------|
----7--7--7------------------------------------------------------------------|
-----------------------------------------------------------------------------|


Bridge

    |-------------Harmonics---------------------------------------------------|
-----12-----12-------12-------------------------------------------------------|
--------------------------------12---12-----12--------------------------------|
------------------------------------------------------------------------------|
------------------------------------------------------------------------------|
------------------------------------------------------------------------------|
------------------------------------------------------------------------------|


Solo
------------------10/12--12-15-12---12h15--12-12-12h15-12-12h15-11--12h15------|
--10--10-14-10-10--------------------------------------------------------------|
-------------------------------------------------------------------------------|
-------------------------------------------------------------------------------|
-------------------------------------------------------------------------------|
-------------------------------------------------------------------------------|
Comments