Soulfly - Living Sacrifice Chords & Tabs

 

Living Sacrifice Chords & Tabs

Soulfly Chords & Tabs

Version: 1 Type: Tab 0 ratings
1 star 2 stars 3 stars 4 stars 5 stars
comments

Living Sacrifice Tab

   
Soulfly 
Living Sacrifice
Prophecy

e-mail-ben17487@hotmail.com

missin the solo...

B,F#,B,E,G#,C#

Intro: distortion
C#|-------------------------------------|
G#|-------------------------------------|
 E|o------------------------------------|
 B|o------------------------------------|
f#|-------------------------------------|
 B|-0-0-12-0-0-0-12-0-0-0-12-0-0-0-12-0-|

|----------------------------------------|
|----------------------------------------|
|---------------------------------------o|
|---------------------------------------o|x8
|----------------------------------------|
|-0-0-12-0-0-0-12-0-0-0-16p14-0-0-16p14--|


Chorus:
|----------------------------------------------------------------|
|----------------------------------------------------------------|
|----------------------------------------------------------------|
|----------------------------------------------------------------|x4
|-5----0--5---2----2----0--2---5----5---0--5---2-----------------|
|-5----0--5---2----2----0--2---5----5---0--5---2-0-0-0-0-0-0-0-0-|


|-------------------------------------|
|-------------------------------------|
|o------------------------------------|
|o------------------------------------|
|-------------------------------------|
|-0-0-12-0-0-0-12-0-0-0-12-0-0-0-12-0-|

|----------------------------------------|
|----------------------------------------|
|---------------------------------------o|
|---------------------------------------o|x4
|----------------------------------------|
|-0-0-12-0-0-0-12-0-0-0-16p14-0-0-16p14--|

Chorus:
|----------------------------------------------------------------|
|----------------------------------------------------------------|
|----------------------------------------------------------------|
|----------------------------------------------------------------|x4
|-5----0--5---2----2----0--2---5----5---0--5---2-----------------|
|-5----0--5---2----2----0--2---5----5---0--5---2-0-0-0-0-0-0-0-0-|

|-------------------------------------------------------------------|
|-------------------------------------------------------------------|
|-------------------------------------------------------------------|
|---0-------0-------0-------0-------0-------0-------0-------0-------|
|---0-------0-------0-------0-------0-------0-------0-------0-------|
|---0---0-0-0---0-0-0---0-0-0---0-0-0---0-0-0---0-0-0---0-0-0---0-0-|
P.M..   . . .   . . .   . . .   . . .   . . .   . . .  . . .   . .

[ Tab from: http://www.guitartabs.cc/tabs/s/soulfly/living_sacrifice_tab.html ]
|-------------------------------------------------------------------|
|-------------------------------------------------------------------|
|-------------------------------------------------------------------|
|---0-------0-------0-------0-------0-------0-------0-------0-------|
|---0-------0-------0-------0-------0-------0-------0-------0-------|
|---0---0-0-0---0-0-0---0-0-0---0-0-0---0-0-0---0-0-0---0-0-0---0-0-|
|   .   . . .   . . .   . . .   . . .   . . .   . . .   . . .   . . |
|                                                                   |
|-------------------------------------------------------------------|
|-------------------------------------------------------------------|
|-------------------------------------------------------------------|
|---------------------------------------0---7---8---3---2---0---5---|
|-------------------------------------------------------------------|
|-------------------------------------------------------------------|

|-------------------------------------|
|-------------------------------------|
|o------------------------------------|
|o------------------------------------|
|-------------------------------------|
|-0-0-12-0-0-0-12-0-0-0-12-0-0-0-12-0-|

|----------------------------------------|
|----------------------------------------|
|---------------------------------------o|
|---------------------------------------o|x4
|----------------------------------------|
|-0-0-12-0-0-0-12-0-0-0-16p14-0-0-16p14--|


|----------------------------------------------------------------|
|----------------------------------------------------------------|
|----------------------------------------------------------------|
|----------------------------------------------------------------|x2
|-0-0-0-----------0-0-0-----------0-0-0-----------0-0-0----------|
|-0-0-0-----------0-0-0-----------0-0-0-----------0-0-0----------|


|-------------------------------------------------|
|-------------------------------------------------|
|-------------------------------------------------|
|-------------------------------------------------|
|-0--0--0-----------------0--0--0-----------------|
|-0--0--0-----------------0--0--0-----------------|
|                                                 |
|                                                 |x4
|-------------------------------------------------|
|-------------------------------------------------|
|-------------------------------------------------|
|-------------------------------------------------|
|----___3__-__3___-__3___-__3___-__3___-----------|
|----12p0---13p0---14p0---15p0---16s17------------|


NEED A DRUMMER??
do it yourself with TabTrax!
get a free trial at
http://www.2112design.com
and forget about all thoses heavy drum kits!!
Comments