Soulfly - I Will Refuse Chords & Tabs

 

I Will Refuse Chords & Tabs

Soulfly Chords & Tabs

Version: 1 Type: Tab 0 ratings
1 star 2 stars 3 stars 4 stars 5 stars
comments

I Will Refuse Tab

SOULFLY
"I WILL REFUSE"
Bonus track on "3" ( Pailhead cover )

Regular tuning

Bass lick:
G---------------------------------------
D---------------------------------------
A------------------------------------7--
E--2-2-2-2-2-2-2-2-2-2-4-4-4-4-4-5-5---- repeat through entire song

Guitar intro:
E-------------------------
B-------------------------
G--11---------------------
D--xx--------------------- tremelo picking
A--9----------------------
E-------------------------
[ Tab from: http://www.guitartabs.cc/tabs/s/soulfly/i_will_refuse_tab.html ]
When Max sets in with "I Will refuse..." --> verse
E-----------------------------------------------
B-----------------------------------------------
G-----------------------------------------------
D------------------------------------9----------
A--4-4-4-4-4-4-4-4-4-4-6-6-6-6-6-7-7-7----------
E--2-2-2-2-2-2-2-2-2-2-4-4-4-4-4-5-5------------

Little break in verse:
E-----------------------------------
B-----------------------------------
G--11-11-11-11-11-------------------
D--11-11-11-11-11-------------------
A--9--9--9--9--9--------------------
E-----------------------------------

End:
E----------
B----------
G----------
D----------
A--4-------
E--2------- let ring
Comments