Soulfly - Fly High Chords & Tabs

 

Fly High Chords & Tabs

Soulfly Chords & Tabs

Version: 2 Type: Tab 0 ratings
1 star 2 stars 3 stars 4 stars 5 stars
comments

Fly High Tab

   
Song: "Fly High"
Artist: Soulfly
Album: Primitive
Transcribed By: Bryan Bramlett (bryanmb87@aol.com)

Tuning: Drop D, 1 1/2 Steps Down, (B,F#,B,E,G#,C#)
^ - bend 1/2 step
^(n) - bend 1/2 step and release

VERSE:
|------------------------------------------------------------------|
|------------------------------------------------------------------|
|---------------------------------------------------------77777777-|
|-6-0-0-0-60-70-6-6-0-0-0-60-70-6-6-0-0-0-60-70-6-6-0-0-0-XXXXXXXX-|
|-6-0-0-0-60-70-6-6-0-0-0-60-70-6-6-0-0-0-60-70-6-6-0-0-0-55555555-|
|-6-0-0-0-60-70-6-6-0-0-0-60-70-6-6-0-0-0-60-70-6-6-0-0-0----------|

BRIDGE:
|-----------------|
|-----------------|
|-----------------|
|-----------------|
|-3p2-2-3p2-2-3p2-|
|-3p2-2-3p2-2-3p2-|
[ Tab from: http://www.guitartabs.cc/tabs/s/soulfly/fly_high_tab_ver_2.html ]
CHORUS: (guitar 1)
|------|
|------|
|------|
|-8--0-|
|-8--0-|
|-8--0-|

CHORUS B: (guitar 2)
|-------------------------|
|-10--13-10--15-10--13-10-|
|--X---X--X---X--X---X--X-|
|--7--10--7--12--7--10--7-|
|-------------------------|
|-------------------------|

CHORUS C: (guitar 3)
|---------------------------------------------------------------------|
|---------------------------------------------------------------------|
|---------------------7^(7)-7^(7)-7^(7)-7^(7)-7^(7)-7^(7)-7^(7)-7^(7)-|
|---------------------------------------------------------------------|
|-5-7-8-7^--5-7-8-7^--------------------------------------------------|
|---------------------------------------------------------------------|

INTERLUDE:
|----------------------------------|
|----------------------------------|
|----------------------------------|
|-0-0-0-0-0-0-0-0-0-0-0-0-0-0-0-13-|
|-0-0-0-0-0-0-0-0-0-0-0-0-0-0-0-13-|
|-0-0-0-0-0-0-0-0-0-0-0-0-0-0-0-13-|
Comments