Soulfly - Fly High Chords & Tabs

 

Fly High Chords & Tabs

Soulfly Chords & Tabs

Version: 1 Type: Bass Tab 0 ratings
1 star 2 stars 3 stars 4 stars 5 stars
comments

Fly High Bass Tab

   
Intro/Verse

G |-----------------------------|
D |-----------------------------|
A |-----------------------------| play 3 times 
E |-----------------------------|
B |--6--0--0--0--6--0--7--0--6--|

G |-----------------------------|
D |-----------------------------|
A |-----------------------------| play once
E |-------------7-7-7-7-7-7-7-7-|
B |--6--0--0--0-----------------|

Pre-Chorus

G |-----------------------------|
D |-----------------------------|
A |-----------------------------| play 7 times
E |-----------------------------|
B |---3--2--2--3--2--2--3--2----|
[ Tab from: http://www.guitartabs.cc/tabs/s/soulfly/fly_high_btab.html ]
G |-----------------------------|
D |-----------------------------|
A |-----------------------------| play once
E |-----------------------------|
B |---3--2--3--2--3--2--3--2----|


Chorus

G |-----------------------------|
D |-----------------------------|
A |-----------------------------| play 4 times (8 times in the second chorus)
E |-----------------------------|
B |--0---------0/12---------12--|

Post-Chorus

G |-----------------------------|
D |-----------------------------|
A |-----------------------------| play 2 times
E |-----------------------------|
B |----0-----0-----0-----(0)----|

Outro

G |---------------------------------|
D |---------------------------------|
A |---------------------------------| play 12 times
E |---------------------------------|
B |-6-0-0-0-0-0-0-0-0-0-0-0-0-0-0-0-|

G |-------|
D |-------|
A |-------|
E |-------|
B |---6---|
Comments