Soulfly - First Commandment Chords & Tabs

 

First Commandment Chords & Tabs

Soulfly Chords & Tabs

Version: 1 Type: Tab 0 ratings
1 star 2 stars 3 stars 4 stars 5 stars
comments

First Commandment Tab

   
Tune down to B (B E A D F# B)

LEGEND:
	/ or \ - slide up or down
	~~     - vibrato
	p      - pull off
  	h	 - hammer on
 	b	 - bend
	N	 - natural harmonics
	A	 - artifical harmonics
	*	 - palm mute
	trem.  - tremelo pick
        ^	 - arpeggiate

----------------------------------------------------------------------------

Main Riff

B|----------|
F|-----9b---|
D|----------|
A|----------|
E|-6-6------|
B|-4-4------| play four times then play

B|----------|
F|----------|
D|----------|
A|------6b--|
E|-6-6------|
B|-4-4------| play four times then start again


Fill One (w/ pitch-shifter)
[ Tab from: http://www.guitartabs.cc/tabs/s/soulfly/first_commandment_tab.html ]
B|---------------------------|
F|---------------------------|
D|---------------------------|
A|-----6-6-6-6---------------|
E|-----------------5-5-5-5---|
B|-4-4---------4-4-----------|
   

Main Riff Two

B|-----------|
F|-----------|
D|-----------|
A|-----------|
E|-6-7-9-10--|
B|-4-5-7-8---|

Fill Two (sitar arr. for guitar)

B|------------------------------------------|
F|---------------------------9-12-12-12-----|
D|-9-10-9-10-9-10-9-10--9-10----------------|
A|------------------------------------------|
E|------------------------------------------|
B|------------------------------------------|

if you want me to tab you a file, e-mail me at:sunsupernova@aol.com
Comments