Soulfly - Fire Chords & Tabs

 

Fire Chords & Tabs

Soulfly Chords & Tabs

Version: 2 Type: Tab 0 ratings
1 star 2 stars 3 stars 4 stars 5 stars
comments

Fire Tab

   
#----------------------------------PLEASE NOTE--------------------------------#
#This file is the author's own work and represents their interpretation of the#
#song. You may only use this file for private study, scholarship, or research.#
#-----------------------------------------------------------------------------#
#-- File created with Instab - http://www.pconline.com/~smcarey/instab.html --#
#-----------------------------------------------------------------------------#

Author/Artist: Soulfly
Title: Fire
Album: Self Titled
Transcribed by: JR Geyser
Email: kobkorner@hotmail.com

This Tuned To B
B
F
D
A
E
B

And the t stands For Trem. 

h- Hammer On 
p- Pull Off
b- Bend String Up
r- Release Bend
/-Slide Up
\-Slide Down
v-Vibrato
*-Trill
t-Right Hand Tap
x-Muted Note
^-Harmonic
  
This is my First Tab But I Know It is right cause i have Checked it For FUckin Ages
Get The New Album Primitive 

And the t stands For Trem. 

-|-----------------------------------|----------------------------------------
-|-----------------------------------|----------------------------------------
-|-----------------------------------|----------------------------------------
-|-----------------------------------|----------------------------------------
-|-----------------------------------|----------------------------------------
-|-0-0-0-0-6-0-6-0-6-0-0-0-0-0-0-0-0-|----------------------------------------
                                                                              

-|-----------------------|----------------------------------------------------
-|-----------------------|----------------------------------------------------
-|-----------------------|----------------------------------------------------
-|-3-5-3-6-3-5-3-2-x-x-2-|----------------------------------------------------
-|-3-5-3-6-3-5-3-2-x-x-2-|----------------------------------------------------
-|-3-5-3-6-3-5-3-2-x-x-2-|----------------------------------------------------
                                                                              

-|---------|------------------------------------------------------------------
-|---------|------------------------------------------------------------------
-|---------|------------------------------------------------------------------
-|-3-5-3-6-|------------------------------------------------------------------
-|-3-5-3-6-|------------------------------------------------------------------
-|-3-5-3-6-|------------------------------------------------------------------
                                                                              

-|----------------------------------------------------------------------------
-|----------------------------------------------------------------------------
-|----------------------------------------------------------------------------
-|-2-2-2-2-2-2-2-2-2-2-2-2----------------------------------------------------
-|-2-2-2-2-2-2-2-2-2-2-2-2----------------------------------------------------
-|-2-2-2-2-2-2-2-2-2-2-2-2----------------------------------------------------
                                                                              
[ Tab from: http://www.guitartabs.cc/tabs/s/soulfly/fire_tab_ver_2.html ]
-|----------------------------------------------------------------------------
-|----------------------------------------------------------------------------
-|----------------------------------------------------------------------------
-|----------------------------------------------------------------------------
-|----------------------------------------------------------------------------
-|-0-19\-0-0-0-0--0-20\-0-0-0-0--0-20\-0-0-0-0--0-20\-0-0-0-0-----------------
                                                                              

-|-----------------------|----------------------------------------------------
-|-----------------------|----------------------------------------------------
-|-9-x-11-x-12-x-14-x-17-|----------------------------------------------------
-|-----------------------|----------------------------------------------------
-|-7-x--9-x-10-x-12-x-15-|----------------------------------------------------
-|-----------------------|----------------------------------------------------
                                                                              

-|-15----------/17-----------/18----------------------------------------------
-|-t------------t-------------t-----------------------------------------------
-|-12----------/14-----------/15----------12-14-12--14p12---------------------
-|-------------------------------14-12h14-----------------14-12h14--14-14p12--
-|----------------------------------------------------------------------------
-|----------------------------------------------------------------------------
                                                                              

-|-------------------------------------------15b---15b-15-12----12-15-12-15---
-|-------------------------------------------15b-------------15---------------
-|----------------------------------------------------------------------------
-|------------------------------------x-x-x-----------------------------------
-|-14-12/14-12----12b-12b-12b-12b-12b-x-x-x-----------------------------------
-|----------------------------------------------------------------------------
                                                                              

-|-------12----------------------------------------19-t-----------------------
-|-15-12----15-12-15-12-------------15-------------19-------------------------
-|----------------------14---14b-14----12b------------------------------------
-|----------------------------------------------------------------------------
-|----------------------------------------------------------------------------
-|----------------------------------------------------------------------------
                                                                              

-|----------------------------------------------------------------------------
-|----------------------------------------------------------------------------
-|----------------------------------------------------------------------------
-|----------------------------------------------------------------------------
-|----------------------------------------------------------------------------
-|-6-0--0-0-0-0-0-------------------------------------------------------------
                                                                              


Comments