Soulfly - Fire Chords & Tabs

 

Fire Chords & Tabs

Soulfly Chords & Tabs

Version: 1 Type: Tab 0 ratings
1 star 2 stars 3 stars 4 stars 5 stars
comments

Fire Tab

   
SONG: Fire
         BAND: Soulfly
        ALBUM: Soulfly
   TRANSCRIBED BY: Nick Biondo (MetlSlp@aol.com)
         DATE: Unknown

 
----------------------------------------------------------

    TUNING: tune as follows (B-E-A-D-F-B)


     VERSE:

    B|------------------------------------|
    F|------------------------------------|
    D|------------------------------------|
    A|------------------------------------|
    E|------------------------------------|
    B|-0-0-0-0-6-0-6-0-6-0-0-0-0-0-0-0-0--|

     CHORUS:

    B|------------------------|
    F|------------------------|
    D|------------------------|
    A|------------------------|
    E|-3-5-3-6-3-5-3-2-x-x-2--|
    B|-1-3-1-4-1-3-1-0-x-x-0--|

     POST-CHORUS:

    B|----------|
    F|----------|
    D|----------|
    A|----------|
    E|-3-5-3-6--|
    B|-1-3-1-4--|

     POST-BRIDGE: (you'll hear it!)

    B|-----------------------------|
    F|-----------------------------|
    D|-----------------------------|
    A|-----------------------------|
    E|-2-2-2-2-2-2-2-2-2-2-2-2-----|
    B|-0-0-0-0-0-0-0-0-0-0-0-0-----|
      |---------P.M.----------|

     FILL 1: (play along with Solo)

    B|-----------------------------------------------------------------|
    F|-----------------------------------------------------------------|
    D|-----------------------------------------------------------------|
    A|-----------------------------------------------------------------|
    E|-----------------------------------------------------------------|
    B|-0-19\-0-0-0-0--0-20\-0-0-0-0--0-20\-0-0-0-0--0-20\-0-0-0-0------|

     SOLO: (w/ flanger)
[ Tab from: http://www.guitartabs.cc/tabs/s/soulfly/fire_tab.html ]
    B|-----------------------------|
    F|-----------------------------|
    D|--9-x-11-x-12-x-14-x-17------|
    A|-----------------------------|
    E|--7-x--9-x-10-x-12-x-15------|
    B|-----------------------------|

    
B|-15----------/17---------/18--------------------------------------------------------|    
F|---trem.---------trem.-------trem.--------------------------------------------------|   
D|-12----------/14---------/15-------------------12-14-12--14p12----------------------|    
A|--------------------------------------14-12h14-----------------14-12h14--14-14p12---|   
E|------------------------------------------------------------------------------------|   
B|------------------------------------------------------------------------------------|

    
B|---------------------------------------------15b---15b--15-12----12-15-12h15p12-----|   
F|---------------------------------------------15b--------------15--------------------|   
D|------------------------------------------------------------------------------------|
A|------------------------------------x-x-x-------------------------------------------|   
E|-14-12/14-12----12b-12b-1b2-12b-12b-x-x-x-------------------------------------------|   
B|------------------------------------------------------------------------------------|

    
B|-------12-----------------------------------------19--trem.-------------------------|   
F|-15-12----15-12-15-12--------A------15------------19--------------------------------|    
D|-----------------------14---14b--14-----12b-----------------------------------------|   
A|---------------------------------------(12)b----------------------------------------|    
E|------------------------------------------------------------------------------------|
B|------------------------------------------------------------------------------------|

     OUTRO:

    B|------------------|
    F|------------------|
    D|------------------|
    A|------------------|
    E|------------------|
    B|-6-0--0-0-0-0-0---|


Comments