Soulfly - Eye For An Eye Chords & Tabs

 

Eye For An Eye Chords & Tabs

Soulfly Chords & Tabs

Version: 2 Type: Tab 0 ratings
1 star 2 stars 3 stars 4 stars 5 stars
comments

Eye For An Eye Tab

   
soulfly,Eye for an eye.
Tabbed by mark kerry,roger.kerry@which.net.
  
Soulfly - Eye for an Eye
Tuning - Drop D tuning, tuned down 1 and a half steps 
Low to high = B F# B E G# C#
Transcribed by Mark Kerry
e-mail: roger.kerry@which.net

Key 
pm = palm mute
B = bend
* = pinched harmonics 

intro/verse (guitar 1&2)   
|----------------------------------------------------------|
|----------------------------------------------------------|
|----------------------------------------------------------|
|----------------------------------------------------------|
|---0--2-2--0--2-2--3--0-----------------------------------|
|---0--2-2--0--2-2--3--0-----------------------------------|
x3 then                                                                              
[ Tab from: http://www.guitartabs.cc/tabs/s/soulfly/eye_for_an_eye_tab_ver_2.html ]
|----------------------------------------------------------|
|----------------------------------------------------------|
|----------------------------------------------------------|
|----------------------------------------------------------|
|---0-0-0--0-0--0-0--0-------------------------------------|
|---0-0-0--0-0--0-0--0-------------------------------------|
                                                                              
chorus  (guitar 1&2)
|----------------------------------------------------------|
|----------------------------------------------------------|
|----------------------------------------------------------|
|----------------------------------------------------------|
|---0-2-2--3-2-2--3-2-2--3-2-2-----------------------------|
|---0-2-2--3-2-2--3-2-2--3-2-2-----------------------------|
                                                                              
post chorus (guiatr 1)
|----------------------------------------------------------|
|----------------------------------------------------------|
|----------------------------------------------------------|
|----------------------------------------------------------|
|---0-2-2-2--3-2-2-2--3-2-2-2--3-2-2-2---------------------|
|---0-2-2-2--3-2-2-2--3-2-2-2--3-2-2-2---------------------|
                                                                              
fill before second verse (guitar 2)
|----------------------------------------------------------|
|--------*0*-----------------------------------------------|
|----------------------------------------------------------|
|----------------------------------------------------------|
|----------------------------------------------------------|
|---0------------------------------------------------------|
pm  -

solo part 1 (guitar 1)  w/wah wah pedal                                                                            
|--10-10-10-10-10-10-10-10-12b-12b-12b-12b--15-15-15-15-15-|
|----------------------------------------------------------|
|----------------------------------------------------------|
|----------------------------------------------------------|
|----------------------------------------------------------|
|----------------------------------------------------------|
listen to the CD for the correct timing

solo rydtem (guiatr 2)
|----------------------------------------------------------|
|----------------------------------------------------------|
|----------------------------------------------------------|
|----------------------------------------------------------|
|---0-2-2--3-2-2--0-2-2--0---------------------------------|
|---0-2-2--3-2-2--0-2-2--0---------------------------------|
pm  - - -  - - -  - - -  -
                                                                              
solo part 2 (guitar 1)   w/wah wah pedal  
|----------------------------------------------------------|
|----------------------------------------------------------|
|----------------------------------------------------------|
|-7-7-7-9-9-9-10-10-10-12-12-12-10-10-10-9-9-9-7-7-7-6-6-6-|
|----------------------------------------------------------|
|----------------------------------------------------------|

end riff (guitar 1&2)                                                                              
|----------------------------------------------------------|
|----------------------------------------------------------|
|----------------------------------------------------------|
|----------------------------------------------------------|
|---0--2-2---0-2-2---0-2-2---0-2-2-------------------------|
|---0--2-2---0-2-2---0-2-2---0-2-2-------------------------|
                                                                              
outro (guitar 1)
|----------------------------------------------------------|
|----------------------------------------------------------|
|----------------------------------------------------------|
|----------------------------------------------------------|
|---6--5--4--3--2--1---------------------------------------|
|---6--5--4--3--2--1---------------------------------------|
pm  -  -  -  -  -  -                                                                              

 
:: Ultimate Guitar Archive :: 
http://www.ultimate-guitar.com 

Comments