Soulfly - Enter Faith Chords & Tabs

 

Enter Faith Chords & Tabs

Soulfly Chords & Tabs

Version: 1 Type: Bass Tab 0 ratings
1 star 2 stars 3 stars 4 stars 5 stars
comments

Enter Faith Bass Tab

Band- Soulfly
Song- Enter Faith

Main Riff

G:--------------| 8 X
D:--------------|
A:--------------|
E: 3𦌽0

Bridge 1 (0:17)

G:----------------------------------------------|
D:----------------------------------------------|
A:----------------------------------------------|
E:-3-3-3-3-3-3-4-4-4-4-4-4-4-2-2-2-2-2----------|

Main Riff (0:24)

G:--------------| 8 X
D:--------------|
A:--------------|
E: 3𦌽0

Chorus (0:38)

G:----------------------------------------------------------| 8x
D:----------------------------------------------------------|
A:----------------------------------------------------------|
E:1-1-1-1-1-1-1-1-2-2-2-2-2-2-2-0-0-0-0-0-0-0-0-------------|

Bridge 2 (1:07)

G:-------------|  4x I believe this is the amount of times you play this
D:-------------|
A:-------------|
E:-4-4-4-4-4---|

Main Riff (1:22)

G:--------------| 8 X
D:--------------|
A:--------------|
E: 3𦌽0



Bridge 3 (1:37)
[ Tab from: http://www.guitartabs.cc/tabs/s/soulfly/enter_faith_btab.html ]
G:-------------------------------------------------------| bout 4 times
D:-------------------------------------------------------|
A:-------------------------------------------------------|
E:2-2-2-2-2-2-2-4-4-4-4-4-4-4-4-3-3-3-3-3-3-3------------|

Main Riff (1:45)

G:--------------| 8 X
D:--------------|
A:--------------|
E: 3𦌽0


Chorus (2:00)

G:----------------------------------------------------------| 8x
D:----------------------------------------------------------|
A:----------------------------------------------------------|
E:1-1-1-1-1-1-1-1-2-2-2-2-2-2-2-0-0-0-0-0-0-0-0-------------|

Bridge 4 (2:28)

G:-----------------------| 2x
D:-----------------------|
A:-----------------------|
E:-2~----3~----5~--------|

Interlude (2:36)

G------------------------------------- AROUND 19-|x just listen to the song if you have
D------------------------------------------------| trouble
A------------------------------------------------|
E-2-2-2-2-2-2-2-2-2-2-2-2-2-2-4~-----------------|
Comments