Soulfly - Bleed Chords & Tabs

 

Bleed Chords & Tabs

Soulfly Chords & Tabs

Version: 2 Type: Tab 0 ratings
1 star 2 stars 3 stars 4 stars 5 stars
comments

Bleed Tab

BLEED

from: SOULFLY

Tunned to C#?

e|---------------------------|
B|---------------------------|
G|---------------------------|
D|---------------------------|
A|---------------------------|
E|--2^0--3^0--2-3-2-0-3^2^0--|

e|-------------------|
B|-------------------|
G|-------------------|
D|-------------------|
A|--2--2---2-2--2----|
E|--0--0---0-0--0----|
[ Tab from: http://www.guitartabs.cc/tabs/s/soulfly/bleed_tab_ver_2.html ]
e|--------------------------------------|
B|--------------------------------------|
G|--------------------------------------|
D|--------------------------------------|
A|--8-x\\-8-x\\-8-x\\-8-11-11-11-11-11--|
E|--6-x\\-6-x\\-6-x\\-6-9--9--9--9--9---|

e|-------------------------------|
B|-------------------------------|
G|-------------------------------|
D|-------------------------------|
A|--4-2-2--2--4-2-2--4-2-4-5-5---|
E|--2-0-0--0--2-0-0--2-0-2-3-3---|

e|-------------------------------|
B|-------------------------------|
G|-------------------------------|
D|-------------------------------|
A|-------------------------------|
E|--2-0-0-----2-0-0------2-3-3---|

e|-------------------|
B|-------------------|
G|-------------------|
D|-------------------|
A|-------------------|
E|--2^3-3-3-3^2-2-2--|

Tabbed by Vogi (vogi@geocities.com)
Comments