Soulfly - Bleed Chords & Tabs

 

Bleed Chords & Tabs

Soulfly Chords & Tabs

Version: 1 Type: Tab 0 ratings
1 star 2 stars 3 stars 4 stars 5 stars
comments

Bleed Tab

BLEED
By: SOULFLY
Tunned to C#?

|---------------------------|
|---------------------------|
|---------------------------|
|---------------------------|
|--2^0--3^0--2-3-2-0-3^2^0--|
|--2^0--3^0--2-3-2-0-3^2^0--|

|-------------------|
|-------------------|
|-------------------|
|-------------------|
|--0--0---0-0--0----|
|--0--0---0-0--0----|
[ Tab from: http://www.guitartabs.cc/tabs/s/soulfly/bleed_tab.html ]
|--------------------------------------|
|--------------------------------------|
|--------------------------------------|
|--------------------------------------|
|--6-x\\-6-x\\-6-x\\-6-9--9--9--9--9---|
|--6-x\\-6-x\\-6-x\\-6-9--9--9--9--9---|

|-------------------------------|
|-------------------------------|
|-------------------------------|
|-------------------------------|
|--2-0-0--0--2-0-0--2-0-2-3-3---|
|--2-0-0--0--2-0-0--2-0-2-3-3---|

|-------------------------------|
|-------------------------------|
|-------------------------------|
|-------------------------------|
|--2-0-0-----2-0-0------2-3-3---|
|--2-0-0-----2-0-0------2-3-3---|

|-------------------|
|-------------------|
|-------------------|
|-------------------|
|--2^3-3-3-3^2-2-2--|
|--2^3-3-3-3^2-2-2--|

Comments