Soulfly - Back To The Primitive Chords & Tabs

 

Back To The Primitive Chords & Tabs

Soulfly Chords & Tabs

Version: 2 Type: Tab 0 ratings
1 star 2 stars 3 stars 4 stars 5 stars
comments

Back To The Primitive Tab

SoulFly- Back to the Primtive	

Drop D then 1 1/2 steps down	

Intro(heavy Flanger)

|---------------------------------------------------------------:
|---------------------------------------------------------------:
|-11-11-11-11-11---11-11---11-11---11-11-11-11---11-11-11-11-11-:
|-12-12-12-12-12---12-12---12-12---12-12-12-12---12-12-12-12-12-:
|---------------------------------------------------------------:
|---------------------------------------------------------------:
[ Tab from: http://www.guitartabs.cc/tabs/s/soulfly/back_to_the_primitive_tab_ver_2.html ]
:----------------------------|
:----------------------------|
:-11-11-11h13-------13p11----|
:-12-12-12----12-12-------12-|
:----------------------------|
:----------------------------|

Verse

    (4x)       (play after 4th time)
|----------| |-----------|
|----------| |-----------|
|----------| |-6---6---6-|
|-2/3-0--0-| |-6---6---6-|
|-2/3-0--0-| |-4---4---4-|
|-2/3-0--0-| |-----------|

Interlude

|-----------------------------|
|-----------------------------|
|-----------------------------|
|-----------------------------|
|-------------------------2-1-|
|-1-0-0-0-1-0-0-0-1-0-0-0-2-1-|

"Ba da ba da bo PRIMITIVE" part

|--------------------------|
|--------------------------|
|--------------------------|
|--------------------------|
|----------------------2-1-|
|-1-0-0-1-0-1-0---1-0--2-1-|
Comments