Soulcracker - Greatest Generation Chords & Tabs

 

Greatest Generation Chords & Tabs

Soulcracker Chords & Tabs

Version: 2 Type: Tab 0 ratings
1 star 2 stars 3 stars 4 stars 5 stars
comments

Greatest Generation Tab

Soulcracker, Greatest Generation.
 Tabbed by Rich Coleman, sixstrngkiller21@cs.com.
  
Tuning: DADGBe

Intro: 
\"Say you'll never go away...\"
Guitar 1
e:---------------------------------------------
B:---------------------------------------------
G:---------------------------------------------
D:---------------------------------------------
A:--5--0-----5-7-------------------------------
D:-------5-7-----------------------------------
=================================================
(After a couple seconds guitar 2 comes in while 1 keeps playing the intro)
Guitar 2
e:---------------------------------------------
B:---------------------------------------------
G:----7-----------------------9---11-----------
D:----7-----------------------9---11-----------
A:----5-----------------------7---9------------
D:---------------------------------------------
strum this using down picks

Chorus:
Guitar 2
[ Tab from: http://www.guitartabs.cc/tabs/s/soulcracker/greatest_generation_tab_ver_2.html ]
\"Greatest Generation....raid the nation.\"
e:-------------------------------------------
B:-------------------------------------------
G:--7-----2----------7-9---------------------
D:--7-----2----5-7---7-9---------------------
A:--5-----0----5-7---5-7---------------------
D:-------------5-7---------------------------
==================================================
Guitar 1
e:-------------------------------------------
B:-------------------------------------------
G:-------------------------------------------
D:--------12h14p12---------------------------
A:-------------------------------------------
D:-------------------------------------------

Verse:
Guitars 1 & 2
e:-------------------------------------------
B:-------------------------------------------
G:---7--x-x-7-x-x-7-x-x-7-x-x------------------
D:---7--x-x-7-x-x-7-x-x-7-x-x-------------
A:---5--x-x-5-x-x-5-x-x-5-x-x--------------
D:-------------------------------------------

e:--------
B:--------
G:--5-----
D:--5-----
A:--3-----
D:--------
=================================================
Post Verse(on the second post verse palm mute these)
Guitars 1 & 2
hit these chords one at a time
e:----------------------
B:----------------------
G:----------------------
D:--4----5---7---9--7-9-
A:--4----5---7---9--7-9-
D:--2----3---5---7--5-7-
==========================================
Chorus
==========================================
Verse 
==========================================
Post-Verse PM
==========================================
Chorus
==========================================
Bridge:
Guitar 1 and 2

e:----------------------------------------
B:----------------------------------------
G:--7-7--7-7--6-6--6-6--------------------
D:--7-7--7-7--6-6--6-6--------------------
A:--5-5--5-5--4-4--4-4--------------------
D:----------------------------------------
===============================================
Chorus
===============================================
Bridge 
End song on C#5
===============================================
WHEW!!! Well thats it. This is a great song by a great band...Enjoy!!!
-Rich 
:: Ultimate Guitar Archive :: 
http://www.ultimate-guitar.com 



Comments