Soul Coughing - Super Bon Bon Chords & Tabs

 

Super Bon Bon Chords & Tabs

Soul Coughing Chords & Tabs

Version: 3 Type: Bass Tab

Super Bon Bon Bass Tab

   
Song Title: Super Bon Bon.
Band: Soul Coughing.
Album: Irresistable Bliss.
Tabs:  Bass
Tuning: G,D,A,E (Standard)

     I am not 100% sure if this tab is correct. I had a hard time trying to pick out the 
in the chorus. But I'll give it a shot.

[ Tab from: http://www.guitartabs.cc/tabs/s/soul_coughing/super_bon_bon_btab_ver_3.html ]
Verse
G:-------------------------|
D:-------6-----------------|
A:---------4-6-4-----------|
E:-4-4-4---------4-4-4-4/1-|

Chorus
G:-----------------------------|
D:-------6-------------6-------|
A:---------4-6-4---------4-6-4-|
E:-4-4-4---------4-4-4---------|

Listen to the song to get the correct timing down.
-----
Tabbed by: Kids With Guns
(Visit our MySpace. http://www.myspace.com/wearekidswithguns)
Comments and corrections welcome!
E-mail us at wearekidswithguns@yahoo.com