Soul Coughing - Super Bon Bon Chords & Tabs

 

Super Bon Bon Chords & Tabs

Soul Coughing Chords & Tabs

Version: 1 Type: Bass Tab 0 ratings
1 star 2 stars 3 stars 4 stars 5 stars
comments

Super Bon Bon Bass Tab

Super Bon Bon
from the album Irrisitible Bliss
written by Soul Coughing
tabbed by Kurt Zitzelman
corrected by Dave Miller (dave@users.basstabarchive.com)

Verse
[ Tab from: http://www.guitartabs.cc/tabs/s/soul_coughing/super_bon_bon_btab.html ]
G|----------------------------
D|------5-3-------------------
A|----------1-3---------------  
E|-/3-3---------1-3-3-3-3\----

Chorus

G|--------------------------
D|--------------------------
A|--------------------------
E|-3-3-3-1-x-/14-0-1--------


Comments