Soul Asylum - Somebody To Shove Chords & Tabs

 

Somebody To Shove Chords & Tabs

Soul Asylum Chords & Tabs

Version: 2 Type: Tab 0 ratings
1 star 2 stars 3 stars 4 stars 5 stars
comments

Somebody To Shove Tab

   
#----------------------------------PLEASE NOTE---------------------------------#
#This file is the author's own work and represents their interpretation of the #
#song. You may only use this file for private study, scholarship, or research. #
#------------------------------------------------------------------------------##
Guitar 1 - Lead

-12------------------------15------14--------------------|
----12----14--12-----12------12-------12---14------------|
-------12--------12------------12-------12---------------|
---------------------------------------------------------|
---------------------------------------------------------|
---------------------------------------------------------|
Play this once at the beginning, and through the intro until the
verse starts, the second guitar is as follows in the verse
also, i am not sure what 'guitar 2' is doing while the lead
is going, is sounds almost like a "Em" not sure.. any insite
would be appriciated.

Guitar 2
[ Tab from: http://www.guitartabs.cc/tabs/s/soul_asylum/somebody_to_shove_tab_ver_2.html ]
---------------------------------------------------------|
---------------------------------------------------------|
-4-4-4-----------4-4-4-----------------------------------|
-4-4-4----7-7-7--4-4-4--7-7-7----------------------------|
-2-2-2----7-7-7--2-2-2--7-7-7----------------------------|
----------5-5-5---------5-5-5----------------------------|
Make sure you palm mute this or it will sound retarded :-)
the other tanscriptions i didn't see add this note
maybe i missed it, but just saying.. :-)


--3-----------3-----------3-------------3-----------------------|
----3----------3-----------3--------------3---------------------|
------------2--------------------------0------------------------|
--0---------2------------2-------------3------------------------|
--2---------0------------2-------------2------------------------|
--3----------------------0--------------------------------------|

-3-----x--------------0---------------------------------|
-0-----2-----4-4-4----1---------------------------------|
-0-----2-----4-4-4----0---------------------------------|
-0-----2-----4-4-4----2---------------------------------|
-2-----0-----2-2-2----3---------------------------------|
-3--------------------x---------------------------------|
I'm waiting by the phone...
waiting for you to call me up...
these are the chords i think, agian any corrections would be
welcomed..


C        Bb       A      C
'Cuz i want somebody to shove
Bb         A      C
I need somebody to shove
Bb         A      C
I want somebody to shove me

etc..etc..
you'll get the idea :-)
suggestions welcomes at unrest@junior.wariat.org
or an027@po.cwru.edu
Comments